PrimaNota.ru - самый крупный в мире бесплатный архив песенных текстов, аккордов, табулатур и нот


Andy Mckee - Tight Trite Night - таба, видео

Регистрация Запомнить меня
Войти через:  Facebook Google Twitter Vk Yandex Mail.ru

Andy Mckee - Tight Trite Night - таба, видео

Печатать
Просмотров: 161
Tight Trite Night
Andy McKee 

This is (almost) the exact version of the YouTube video of Andy McKee 
-->   http://www.youtube.com/watch?v=tn1d5DmdMqY     

This tab may not be really clear, so it's important to watch the song 
very carefully to get the correct fingerstyle and rhythm. For 
example: he slaps almost every seventh 16th note on the low E string
and he pops a lot death notes.                                                                   

It was really hard to follow, so there is a big chance that not
everything is correct. If you have comments or corrections,
please mail me --> christiaankieft@gmail.com

Good luck!
Christiaan Kieft, The Netherlands 


                 S                       S        
   S S S S S T T T T T T  S. T S S S T T T T T T  
|------x-----------------------x-----------------|
|------x-----------------------x-----------------|
|------x-----------------------x-----------------|
|------------x-x---x-0-2-----x-------x-x---x-0-2-|
|--------0-2---------------------0-2-------------|
|--0-0-----------x--------0--------------x-------|


                  S             TH   S    
   S. T S S S T T T T T T  E    Q    S S  
|-------x---------------------<>7------0-|
|-------x---------------------<>7------0-|
|-------x---------------------<>7--------|
|-----x-------x-x---x-0-2----------------|
|---------0-2----------------------------|
|--0--------------x--------0---------x---|


             S         S                       S        
   S X X X X S S S T T T T T T  S. T S S S T T T T T T  
|------------0-----------------------x-----------------|
|----------0-------------------------x-----------------|
|--------0---------------------------x-----------------|
|------2-----------x-x---x-0-2-----x-------x-x---x-0-2-|
|----2---------0-2---------------------0-2-------------|
|--0---------x---------x--------0--------------x-------|


                  S       ^    TH   S    
   S. T S S S T T T T T T E    Q    S S  
|-------x---------------------<>7------3-|
|-------x---------------------<>7------0-|
|-------x---------------------<>7--------|
|-----x-------x-x---x-0-2----------------|
|---------0-2----------------------------|
|--0--------------x--------0---------x---|


             S        S           S           S    
   S X X X X S S S. T S T  T  S S S S T T T T S S  
|------------3----------0h-2----2-2-------------0-|
|----------0----------------------0-------3-------|
|--------4--------------0h-2------2-------------0-|
|------0------------x-----------------0-4---4-----|
|--------------0-2--------------------------------|
|--0---------x--------x-------0---x-x---------x---|


             S         S                     S    
   S X X X X S S S T T T T T T  S. T S S S S S S  
|------------0-----------------------x-----0---3-|
|----------0-------------------------x-----0---0-|
|--------0---------------------------x-----------|
|------2-----------x-x---x-0-2-----x-------------|
|----2---------0-2---------------------0-2-------|
|--0---------x---------x--------0------------x---|


             S        S           S           S    
   S X X X X S S S. T S T  T  S S S S T T T T S S  
|------------3----------0h-2----2-2-------------0-|
|----------0----------------------0-------3-------|
|--------4--------------0h-2------2-------------0-|
|------0------------x-----------------0-4---4-----|
|--------------0-2--------------------------------|
|--0---------x--------x-------0---x-x---------x---|


             S         S                     S    
   S X X X X S S S T T T T T T  S. T S S S S S S  
|------------0-----------------------x---------3-|
|----------0-------------------------x-----------|
|--------0---------------------------x-----------|
|------2-----------x-x---x-0-2-----x-------0---2-|
|----2---------0-2---------------------0-2-------|
|--0---------x---------x--------0------------x---|


             S             S       S         S    
   S X X X X S S S X X X X S S S S S T T S S S S  
|------------3-------------0-0---0-------0-0---2-|
|----------0-------------3---3---3-------2-2-----|
|--------0-------------0-----------------------0-|
|------2-------------2---------------------------|
|--0---------x-0-2-3-------x-3---3---0-2-2-2-----|
|----------------------------------x---------x---|


             S         S                     S    
   S X X X X S S S T T T T T T  S. T S S S S S S  
|------------2-----------------------x---------3-|
|----------0-------------------------x-----------|
|--------0---------------------------x-----------|
|------2-----------x-x---x-0-2-----x-------0---2-|
|----2---------0-2---------------------0-2-------|
|--0---------x---------x--------0------------x---|


             S             S                    
   S X X X X S S S X X X X S S S S S S S S S S  
|------------3-------------0-------x-------x-2-|
|----------0-------------3---3---3-x-2---2-x---|
|--------0-------------0-----3---3-x-2---2-x-0-|
|------2-------------2-------------------------|
|--0---------x-0-2-3-------x---3-3-----2-------|
|----------------------------------------------|


             S         S                      S        
   S X X X X S S S T T T T T T S. T S S S T T T T T T  
|------------2----------------------x-----------------|
|----------0------------------------x-----------------|
|--------0--------------------------x-----------------|
|------2-----------x-x---x-0-2----x-------x-x---x-0-2-|
|----2---------0-2--------------------0-2-------------|
|--0---------x---------x-------0--------------x-------|


                               TH    S    
   S. T S S S T T T T T T E    E  E  S S  
|-------x--------------------<>7-------3-|
|-------x--------------------<>7---------|
|-------x--------------------<>7---------|
|-----x-------x-x---x-0-2----------------|
|---------0-2----------------------------|
|--0--------------x-------0-------0--x---|


             S        S          S           S    
   S X X X X S S S. T S T  T S S S S T T T T S S  
|------------3----------0h-2---2-2-------------0-|
|----------0----------------------------3-------|
|--------4--------------0h-2-----2-------------0-|
|------0------------x----------------0-4---4-----|
|--------------0-2-------------------------------|
|--0---------x--------x------0---x-x---------x---|


             S         S                    S    
   S X X X X S S S T T T T T T S. T S S S S S S  
|------------0----------------------x-----0---3-|
|----------0------------------------x-----0---0-|
|--------0--------------------------x-----------|
|------2-----------x-x---x-0-2----x-------------|
|----2---------0-2--------------------0-2-------|
|--0---------x---------x-------0------------x---|


             S        S          S           S    
   S X X X X S S S. T S T  T S S S S T T T T S S  
|------------3----------0h-2---2-2-------------0-|
|----------0---------------------x-------3-------|
|--------4--------------0h-2-----2-------------0-|
|------0------------x----------------0-4---4-----|
|--------------0-2-------------------------------|
|--0---------x--------x------0---x-x---------x---|


             S         S                    S    
   S X X X X S S S T T T T T T S. T S S S S S S  
|------------0----------------------x---------3-|
|----------0------------------------x-----------|
|--------0--------------------------x-----------|
|------2-----------x-x---x-0-2----x-------0---2-|
|----2---------0-2--------------------0-2-------|
|--0---------x---------x-------0------------x---|


             S             S       S       S    
   S X X X X S S S X X X X S S S S S S S S S S  
|------------3-------------0---2-2-----0-0---2-|
|----------0-------------3-----3-3-----2-2-----|
|--------0-------------0---------------------0-|
|------2-------------2-------------------------|
|--0---------x-0-2-3-------x-3-------2---------|
|----------------------------------x-------x---|


             S         S                    S    
   S X X X X S S S T T T T T T S. T S S S S S S  
|------------2----------------------x---------3-|
|----------0------------------------x-----------|
|--------0--------------------------x-----------|
|------2-----------x-x---x-0-2----x-------0---2-|
|----2---------0-2--------------------0-2-------|
|--0---------x---------x-------0------------x---|


             S             S       S       S    
   S X X X X S S S X X X X S S S S S S S S S S  
|------------3-------------0-2---2---0---0---2-|
|----------0-------------3---3---3---2---2-----|
|--------0-------------0---------------------0-|
|------2-------------2-------------------------|
|--0---------x-0-2-3-------x---3-------2-------|
|----------------------------------x-------x---|


             S         S                         
   S X X X X S S S T T T T T T S. T S S S S E    
|------------2----------------------x-----------|
|----------0------------------------x-----------|
|--------0--------------------------x-----------|
|------2-----------x-x---x-0-2----x-------x-----|
|----2---------0-2--------------------0-2-------|
|--0---------x---------x-------0------------3S--|


       S                      S                  
   S S S T T S. T S T  T S  S S T T T T S T T S  
|-----------------x--------10-------0-----0-----|
|----8-------5----x-7h-8------------8-----8-----|
|----9-------5----x-----------------7-----7-----|
|---------------x-------------------------------|
|-------------------------------------7-----7---|
|--8---x-x-x-5------8----x----x-0-0-----0-----0-|


       S                      S             S  
   S S S T T S. T S T  T S  S S  S  S    E  S  
|-----------------x--------10---10----<>12--0-|
|----8-------5----x-7h-8--------10------12--0-|
|----9-------5----x-------------11------12----|
|---------------x-----------------------------|
|-------------------------------------------x-|
|--8---x-x-x-5------8----x----x-----0-------x-|


       S       S      S                                        S            
  S. T E  S. T S E  S S T T S X X X X E     S. T S S S S S E.  E  S. T S S  
|-7-------5------7--7-------0---------0--|-------x-------x--------3--3-x-0-|
|-8-------5------8--8-------8-------8----|-----3-x---3---x-3---3--3--3-x---|
|----x-------x--------------7-----7------|-----0-x---2---x-2---2--2--2-x-0-|
|----------------------------------------|-----------------1---1-----------|
|-----------------------5-7-7---7--------|-------------3---2---2-----------|
|-8----x--5----x-7--7-x-------0----------|--3------2-------0---x--1--1---0-|


                S                      S        
   E  S S S T T T T T T S. T S S S T T T T T T  
|-----0----------------------x-----------------|
|-----0----------------------x-----------------|
|-----0----------------------x-----------------|
|-----2-----x-x---x-0-2----x-------x-x---x-0-2-|
|-----2-0-2--------------------0-2-------------|
|-----0---------x-------0--------------x-------|


                  S            TH   S    
   S. T S S S T T T T T T E    Q    S S  
|-------x--------------------<>7------3-|
|-------x--------------------<>7--------|
|-------x--------------------<>7--------|
|-----x-------x-x---x-0-2---------------|
|---------0-2---------------------------|
|--0--------------x-------0---------x---|


             S        S          S           S    
   S X X X X S S S. T S T  T S S S S T T T T S S  
|------------3----------0h-2---2-2-------------0-|
|----------0---------------------0-------3-------|
|--------4--------------0h-2-----2-------------0-|
|------0------------x----------------0-4---4-----|
|--------------0-2-------------------------------|
|--0---------x--------x------0---x-x---------x---|


             S         S                   S    
   S X X X X S S S T T T T S  S. T S S S S S S  
|------------0---------------------x-----0---3-|
|----------0-----------------------x-----0---0-|
|--------0-------------------------x-----------|
|------2-----------x-x---x-2~----x-------------|
|----2---------0-2-------------------0-2-------|
|--0---------x---------x------0------------x---|


             S        S          S           S    
   S X X X X S S S. T S T  T S S S S T T T T S S  
|------------3----------0h-2---2-2-------------0-|
|----------0---------------------0-------3-------|
|--------4--------------0h-2-----2-------------0-|
|------0------------x----------------0-4---4-----|
|--------------0-2-------------------------------|
|--0---------x--------x------0---x-x---------x---|


             S         S                    S    
   S X X X X S S S T T T T T T S. T S S S S S S  
|------------0----------------------x---------3-|
|----------0------------------------x-----------|
|--------0--------------------------x-----------|
|------2-----------x-x---x-0-2----x-------0---2-|
|----2---------0-2--------------------0-2-------|
|--0---------x---------x-------0------------x---|


             S             S       S      S    
   S X X X X S S S X X X X S S S S S E  S S S  
|------------3-------------0-2---2---0--0---2-|
|----------0-------------3---3---3---2--2-----|
|--------0-------------0--------------------0-|
|------2-------------2------------------------|
|--0---------x-0-2-3-------x---3-----2--2-----|
|---------------------------------------------|


             S         S                    S    
   S X X X X S S S T T T T T T S. T S S S S S S  
|------------2----------------------x---------3-|
|----------0------------------------x-----------|
|--------0--------------------------x-----------|
|------2-----------x-x---x-0-2----x-------0---2-|
|----2---------0-2--------------------0-2-------|
|--0---------x---------x-------0------------x---|


             S             S       S       S    
   S X X X X S S S X X X X S S S S S S S S S S  
|------------3-------------0---2-------0-----2-|
|----------0-------------3-----3-------2-------|
|--------0-------------0---------------------0-|
|------2-------------2-------------------------|
|--0---------x-0-2-3-------x-3---3---2---2-----|
|----------------------------------x-------x---|


             S         S                        
   S X X X X S S S T T T T T T S. T S S S E.    
|------------2----------------------x----------|
|----------0------------------------x----------|
|--------0--------------------------x----------|
|------2-----------x-x---x-0-2----x------------|
|----2---------0-2--------------------x-2------|
|--0---------x---------x-------0----------3S---|


       S                      S                  
   S S S T T S. T S T  T S  S S T T T T S T T S  
|-----------------x--------10-------0-----0-----|
|----8-------5----x-7h-8------------8-----8-----|
|----9-------5----x-----------------7-----7-----|
|---------------x-------------------------------|
|-------------------------------------7-----7---|
|--8---x-x-x-5------8----0----x-0-0-----0-----0-|


       S                      S             S  
   S S S T T S. T S T  T S  S S  S  S    E  S  
|-----------------x--------10---10----<>12--0-|
|----8-------5----x-7h-8--------10------12--0-|
|----9-------5----x-------------11------12--0-|
|---------------x-----------------------------|
|-----------------------------x-------------x-|
|--8---x-x-x-5------8----0----x-----0-------x-|


       S       S      S                                        S            
  S. T E  S. T S E  S S T T S X X X X E     S. T S S S S S E.  E  S. T S S  
|-7-------5------7--7-------0---------0--|-------x----------------3--3-x-0-|
|-8-------5------8--8-------8-------8----|-----3-x---3-----3---3--3--3-x---|
|----x----------------------7-----7------|-----0-x---2-----2---2--2--2-x-0-|
|----------------------------------------|-----------------1---1-----------|
|-----------------------5-7-7---7--------|-------------3-2-2---2-----------|
|-8----x--5----x-7--7-x-------0----------|--3------2-------0---x--1--1---0-|


                S                      S        
   E  S S S T T T T T T S. T S S S T T T T T T  
|-----0----------------------x-----------------|
|-----0----------------------x-----------------|
|-----0----------------------x-----------------|
|-----2-----x-x---x-0-2----x-------x-x---x-0-2-|
|-----2-0-2--------------------0-2-------------|
|-----0---------x-------0--------------x-------|


                  S                          
   S. T S S S T T T T T T S. T S S S S S  S  
|-------x----------------------x-------x-12-|
|-------x----------------------x-------x-12-|
|-------x----------------------x-------x-12-|
|-----x-------x-x---x-0-2----x-------0------|
|---------0-2--------------------0-2--------|
|--0--------------x-------0-----------------|


   S  S S  S S  S S   S S S S X X X X S S S   S  
|----12-x-10---10-x-7g8---8-8---------7-7-x-6g7-|
|----12-x------12-x-----------------0---0-x-----|
|----12-x---------x-8g9---9-9-----7-----7-x-6g7-|
|---------------------------0---0-------0-------|
|-----------------------0-----------------------|
|--0---------x----------------------------------|


   S S S S T T T T S S S S S. X X S S S  S  
|----5-x---3-0-3-0---0-----0------0-0-x-12-|
|------x-------------------0------0-0-x-12-|
|----5-x-5-----------0-----0----0---0-x-12-|
|------------------4-------2----2---2------|
|------------------------2-2--2-----2------|
|--0-------------------0---0--0-----0------|


   S  S S  S S  S S   S S S S X X X X S S S   S  
|----12-x-10---10-x-7g8---8-8---------7-7-x-6g7-|
|----12-x------12-x-----------------0---0-x-----|
|----12-x---------x-8g9---9-9-----7-----7-x-6g7-|
|---------------------------0---0-------0-------|
|-----------------------0-----------------------|
|--0---------x----------------------------------|


   E     E      E      E      E      E     E    s  s
|--------12-----7------5------3------2-----0----x----|
|--------x------x------x------x------x-----0----x----|
|--------11-----7------5------4------2-----0----x----|
|--------0------0------0------0------0-----0----x----|
|--------0------0------0------0------0-----0----x----|
|--0---------------------------------------0----x-3S-|


       S                      S                  
   S S S T T S. T S T  T S  S S T T T T S T T S  
|-----------------x--------10-------0-----0-----|
|----8-------5----x-7h-8------------8-----8-----|
|----9-------5----x-----------------7-----7-----|
|---------------x-------------------------------|
|-------------------------------------7-----7---|
|--8---x-x-x-5------8----0----x-0-0-----0-----0-|


       S                      S             S  
   S S S T T S. T S T  T S  S S  S  S    E  S  
|-----------------x--------10---10----<>12--0-|
|----8-------5----x-7h-8--------10------12--0-|
|----9-------5----x-------------11------12--0-|
|---------------x-----------------------------|
|-----------------------------x-------------x-|
|--8---x-x-x-5------8----0----x-----0-------x-|


       S       S      S                                       S             
  S. T E  S. T S E  S S T T S X X X X E    S. T S S S S S E.  S S S. T S S  
|-7-------5------7--7-------0---------0-|-------x-----------------3--3---0-|
|-8-------5------8--8-------8-------8---|-----3-x---3-----3-------3--3---0-|
|----x-------x--------------7-----7-----|-----0-x---2-----2-------2--2---0-|
|---------------------------------------|-----------------1----------------|
|-----------------------5-7-7---7-------|-------------3-2-2----------------|
|-8----x--5----x-7--7-x-------0---------|--3------2-------0---x-0-1--1---0-|

                S                      S        
   E  S S S T T T T T T S. T S S S T T T T T T  
|-----0----------------------x-----------------|
|-----0----------------------x-----------------|
|-----0----------------------x-----------------|
|-----2-----x-x---x-0-2----x-------x-x---x-0-2-|
|-----2-0-2--------------------0-2-------------|
|-----0---------x-------0--------------x-------|


                  S                      S        
   S. T S S S T T T T T T S. T S S S T T T T T T  
|-------x----------------------x-----------------|
|-------x----------------------x-----------------|
|-------x----------------------x-----------------|
|-----x-------x-x---x-0-2----x-------x-x---x-0-2-|
|---------0-2--------------------0-2-------------|
|--0--------------x-------0--------------x-------|


                  S                      S        
   S. T S S S T T T T T T S. T S S S T T T T T T  
|-------x----------------------x-----------------|
|-------x----------------------x-----------------|
|-------x----------------------x-----------------|
|-----x-------x-x---x-0-2----x-------x-x---x-0-2-|
|---------0-2--------------------0-2-------------|
|--0--------------x-------0--------------x-------|


   ^              S       ^    TH         
   S. T S S S T T T T T T E    E  E  S S  
|-------x--------------------<>7-------3-|
|-------x--------------------<>7-------0-|
|-------x--------------------<>7---------|
|-----x-------x-x---x-0-2----------------|
|---------0-2----------------------------|
|--0--------------x-------0-------0--x---|


             S          S          S           S    
   S X X X X T T S S. T S T  T S S S S T T T T S S  
|------------3------------0h-2---2-2-------------0-|
|----------0-x---------------------0-------3-------|
|--------4---x------------0h-2-----2-------------0-|
|------0-----x--------x----------------0-4---4-----|
|----------------0-2-------------------------------|
|--0---------x----------x------0---x-x---------x---|


   S X X X X T T S S S S S  S. T S S S S S S  
|------------0---------x---------x-----0-x-3-|
|----------0-x---------x---------x-------x---|
|--------0---x---------x---------x-----0-x---|
|------2-----x-------x---2b----x-------------|
|----2-------x---0-2---------------0-2-------|
|--0---------x--------------0----------------|


             S        S          S           S    
   S X X X X S S S. T S T  T S S S S T T T T S S  
|------------3----------0h-2---2-2-------------0-|
|----------0-x-------------------0-------3-------|
|--------4---x----------0h-2-----2-------------0-|
|------0-----x------x----------------0-4---4-----|
|--------------0-2-------------------------------|
|--0---------x--------x------0---x-x---------x---|


   S X X X X S S S S S S  S. T S S S S S S  
|------------0-------x---------x-----0-x-3-|
|----------0-x-------x---------x-------x---|
|--------0---x-------x---------x-----0-x---|
|------2-----x-----x---2b----x-----------2-|
|----2-------x-0-2---------------0-2-------|
|--0---------x------------0----------------|


             S         S       S       S    
   S X X X X S S S T T S S S S S S S S S S  
|------------3-----0-----2-------0-------2-|
|----------0-x---------------------2-------|
|--------0---x-------------4-2-------2---0-|
|------2-----x-----------------------------|
|--0---------x-0-2-3-----3-------2---------|
|------------x---------x-------x-------x---|


             S                              
   S X X X X S S S S S S  S. T S S S S S S  
|------------2-------x---------x-----0-x-3-|
|----------0-x-------x---------x-------x---|
|--------0---x-------x---------x-----0-x-2-|
|------2-----x-----0---2b----x-------------|
|----2-------x-0-2---------------0-2-------|
|--0---------x------------0----------------|

      S       S         S         S                                       
  S S S S S S S S S T T S S S T T S S   S T T S S S S S S  S. T S S S S E
|---3-----------0---0-----0---0-----2-|---2---2-------x---------x-----x----|
|---------------3---3-----2---2-----0-|---0---0-------x---------x-----x----|
|-------------------------------------|-------0-------x---------x-----x----|
|---2-------0-------------------------|-------------0---2b----x------------|
|-0-----0-2-------3---------2---------|---------0-2---------------0-2------|
|-----x-------x---------x---------x---|-0------------------0------------3S-|

   E  S S S S S T  T S  S S T T S T T T T T T  
|----------------------10---------------------|
|-----8---5---5-7h-8------------8---8---------|
|-----9---5---5-----------------7---7---------|
|---------------------------------------------|
|---------------------------7-----7-----7-----|
|--8--x---5-5---8----0--------0-----------0---|


                                S             S  
   S S T T T T S. T S T  T S  S S  S  S    E  S  
|-------------------x--------10---10----<>12----|
|----8---------5----x-7h-8--------10------12----|
|----9---------5----x-------------11------12----|
|-----------------x-----------------------------|
|--------7----------------------x-------------x-|
|--x-------0-x-5------8----0----x-----0-------x-|


                                                              S      
   S S S S S S S E  S S S S S S S    S. T S S S S S E.  E  S. T S S  
|--7-----5---0-x----7-x-0-----0-x-|-------x-------x--------3--3-x-0-|
|--8-8-x-------x-8--8-x-8-----8-x-|-----3-x---3-3-x-3---3--3--3-x-0-|
|----9-x-------x-7----x-7-----7-x-|-----0-x---2-2-x-2---2--2--2-x-0-|
|------x--------------------------|-----------------1---1-----------|
|---------------------------7-7---|-------------3---2---2-----------|
|--8-8---5-x-5---7--------0-------|--3------2-------0---0--1--x---0-|


                S       ^              S        
   E  S S S T T T T T T S. T S S S T T T T T T  
|-----0----------------------x-----------------|
|-----0----------------------x-----------------|
|-----0----------------------x-----------------|
|-----2-----x-x---x-0-2----x-------x-x---x-0-2-|
|-----2-0-2--------------------0-2-------------|
|-----0---------x-------0--------------x-------|


   ^              S       ^              S        
   S. T S S S T T T T T T S. T S S S T T T T T T  
|-------x----------------------x-----------------|
|-------x----------------------x-----------------|
|-------x----------------------x-----------------|
|-----x-------x-x---x-0-2----x-------x-x---x-0-2-|
|---------0-2--------------------0-2-------------|
|--0--------------x-------0--------------x-------|


   ^              S       ^              S        
   S. T S S S T T T T T T S. T S S S T T T T T T  
|-------x----------------------x-----------------|
|-------x----------------------x-----------------|
|-------x----------------------x-----------------|
|-----x-------x-x---x-0-2----x-------x-x---x-0-2-|
|---------0-2--------------------0-2-------------|
|--0--------------x-------0--------------x-------|


   ^              S       ^            
   S. T S S S T T T T T T S Q    E.    
|-------x----------------------------||
|-------x----------------------------||
|-------x----------------------------||
|-----x-------x-x---x-0-2------------||
|---------0-2-------------2----------||
|--0--------------x-------0----------||




Duration Legend
---------------
W - whole
H - half
Q - quarter
E - 8th
S - 16th
T - 32nd
X - 64th
. - note dotted
|-n-|  - n-tuplets


Tablature Legend
----------------
L - tied note
x - dead note
g - grace note
(n) - ghost note
> - accentuded note
NH - natural harmonic
AH - artificial harmonic
TH - tapped harmonic
SH - semi harmonic
PH - pitch harmonic
h - hammer on
p - pull off
b - bend
br - bendRelease
pb - preBend
pbr - preBendRelease
brb - bendReleaseBend
\n/ - tremolo bar dip
\n - tremolo bar dive
-/n - tremolo bar Release up
/n\ - tremolo bar inverted dip
/n - tremolo bar return
-\n - tremolo bar Release down
S - shift slide
s - legato slide
/ -  slide into from below or out of upwards
\ -  slide into from above or out of downwards
~ - vibrato
W - wide vibrato
tr - trill
TP - tremolo picking
T - tapping
S - slap
P - pop
< - fade in
^ - brush up
v - brush down
Добавлено: 14.05.2012
Другие материалы по этой песне:

Страница создана 29.04.2012
http://primanota.ru/andy-mckee/tight-trite-night-chords.htm
Привет, Гость.
Предлагаем пройти революционный курс по гитаре.
Подарок от PrimaNota.Ru, забирай!