PrimaNota.ru - самый крупный в мире бесплатный архив песенных текстов, аккордов, табулатур и нот


Andy Mckee - Dreamcatcher - таба, видео

Регистрация Запомнить меня
Войти через:  Facebook Google Twitter Vk Yandex Mail.ru

Andy Mckee - Dreamcatcher - таба, видео

Печатать
Просмотров: 164
Уроки эстрадного вокала в Санкт-Петербурге
tuning - DADF#AE


||--------0-----------------|--------0-----------------|
||--0-------0---------------|--0-------0---------------|
4|----5-------0-3---------3-|----5-------0-3---------3-|
4|------0----------0--------|------0----------0--------|
||----------------------0---|----------------------0---|
||--5-----------4-----------|--5-----------4-----------|

|--------0-----------------|--------0-----------|
|--0-------0---------------|--0-------0---------|
|----5-------0-3---------3-|----5-------5-5-----|
|------0----------0--------|------0-------------|
|----------------------0---|--------------------|
|--5-----------4-----------|--5-----------5-----|

|--------3-----0h2---2p0--------0---|------0-----------------0-----------|
|--0-----0-----0----------0-4-5---0-|---------0----------0-----0---------|
|----5---------0--------------------|----8-----------------5-------------|
|------0-----------0----------------|------11----------------7-----------|
|----------x------------------------|---------9--x-------------7-x-------|
|--5-------x-4-4--------------------|--9---------x--9--7-7-------x-0-4-0-|

|--------3-----0h2---2p0--------0---|--2-----0-----0---------0---|
|--0-----0-----0----------0-4-5---0-|----0-----0---0-----4-----0-|
|----5---------0--------------------|------0-----0-0-----0-------|
|------0-----------0----------------|--------------0-----2-------|
|----------x------------------------|--2-----4-----5---0-0-------|
|--5-------x-4-4--------------------|----------------------------|

|--------5-----------5h7-7-----|----9-----10-----5h7-5-0-----------|
|--------5-----5---------------|------0------0-----------5-4-0-----|
3------7---------7-------------7--------0------0---------------0-5-|
4----7-------------7-----------8-----------------------------------|
|----------x-0-0---------------|-----------------0-----------------|
|--5-------x-----------------0-|----9------------------------------|
 
|--------3-----0h2---2p0--------0---|--2-----0-----0---------0---|
|--0-----0-----0----------0-4-5---0-|----0-----0---0-----4-----0-|
4----5---------0--------------------|------0-----0-0-----0-------|
4------0-----------0----------------|--------------0-----2-------|
|----------x------------------------|--2-----4-----5---0-0-------|
|--5-------x-4-4--------------------|----------------------------|

|---------0-0----------0-0---|---------0-0----------0-0---|
|-------------0-0----------0-|-------------0-0----------0-|
|-------8------------8-------|-------8------------8-------|
|----11-----------11---------|----11-----------11---------|
|-----------(b9)--7--------(b9)--|-----------(b9)--7--------(b9)--|
|--(b9)------------------------|--(b9)------------------------|

|---------0-0----------0-0---|---------0-0----------0-0---|
|-------------0-0----------0-|-------------0-0----------0-|
|-------8------------8-------|-------8------------8-------|
|----11-----------11---------|----11-----------11---------|
|-----------(b9)--7--------(b9)--|-----------(b9)--7--------(b9)--|
|--7-------------------------|--7-------------------------|

|--------3-----0h2---2p0--------0---|------0-----------------0-----------|
|--0-----0-----0----------0-4-5---0-|---------0----------0-----0---------|
|----5---------0--------------------|----8-----------------5-------------|
|------0-----------0----------------|------11----------------7-----------|
|----------x------------------------|---------9--x-------------7-x-------|
|--5-------x-4-4--------------------|--9---------x--9--7-7-------x-0-4-0-|

|--------3-----0h2---2p0--------0---|--2-----0-----0---------0---|
|--0-----0-----0----------0-4-5---0-|----0-----0---0-----4-----0-|
|----5---------0--------------------|------0-----0-0-----0-------|
|------0-----------0----------------|--------------0-----2-------|
|----------x------------------------|--2-----4-----5---0-0-------|
|--5-------x-4-4--------------------|----------------------------|

|---------0-0----------0-0---|---------0-0----------0-0---|
|-------------0-0----------0-|-------------0-0----------0-|
|-------8------------8-------|-------8------------8-------|
|----11-----------11---------|----11-----------11---------|
|-----------(b9)--7--------(b9)--|-----------(b9)--7--------(b9)--|
|--(b9)------------------------|--(b9)------------------------|

|--7------7------------7-----|---------7------------7(b9)----|
|-----------0------------0---|-----------0--------------0---|
|-------8-----8------8-----8-|-------8-----8------8-------0-|
|----11-----------11---------|----11-----------11-----------|
|---------------(b9)-----------|---------------(b9)-------------|
|--(b9)------------------------|--(b9)--------------------------|

|----------0-------------0------|---------0-------------0-----|
|--12--------12------------12---|-----------12------------0---|
|--------8------8------8------8-|-------8------8------8-----0-|
|-----11------------11----------|----11------------11---------|
|-----------------(b9)------------|----------------(b9)-----------|
|---(b9)--------------------------|--(b9)-------------------------|

|--7------7------------7-----|---------7------------7(b9)----|
|-----------0------------0---|-----------0--------------0---|
|-------8-----8------8-----8-|-------8-----8------8-------0-|
|----11-----------11---------|----11-----------11-----------|
|---------------(b9)-----------|---------------(b9)-------------|
|--(b9)------------------------|--(b9)--------------------------|

|----------0-------------0------|---------0-------------0-----|
|--12--------12------------12---|-----------12------------0---|
|--------8------8------8------8-|-------8------8------8-----0-|
|-----11------------11----------|----11------------11---------|
|-----------------(b9)------------|----------------(b9)-----------|
|---(b9)--------------------------|--(b9)-------------------------|

Obs1.: Esse “t” é o tapping.
 
|----------------------------0-|----------------------------0-|
|------------0--------0--------|------------0--------0--------|
|-------0------0--------0------|-------0------0--------0------|
|-----0-------------0----------|-----0-------------0----------|
|---------9t-----7t-------9t---|---------7t-----5t-------7t---|
|--7t--------------------------|--5t--------------------------|

|----------------------------0-|---------------------------|
|------------0--------0--------|-----------------0---------|
|-------0------0--------0------|-------0-------------------|
|-----0-------------0----------|-----0---------------------|
|---------9t-----7t-------9t---|---------11t-12t---5t------|
|--7t--------------------------|--9t-----------------------|


|--------3-----0h2---2p0--------0---|------0-----------------0-----------|
|--0-----0-----0----------0-4-5---0-|---------0----------0-----0---------|
|----5---------0--------------------|----8-----------------5-------------|
|------0-----------0----------------|------11----------------7-----------|
|----------x------------------------|---------9--x-------------7-x-------|
|--5-------x-4-4--------------------|--9---------x--9--7-7-------x-0-4-0-|

|--------3-----0h2---2p0--------0---|--2-----0-----0---------0---|
|--0-----0-----0----------0-4-5---0-|----0-----0---0-----4-----0-|
|----5---------0--------------------|------0-----0-0-----0-------|
|------0-----------0----------------|--------------0-----2-------|
|----------x------------------------|--2-----4-----5---0-0-------|
|--5-------x-4-4--------------------|----------------------------|

|--------5-----------5h7-7----|----9-----10-----5h7-5-0-----------|
|--------5-----5--------------|------0------0-----------5-4-0-----|
3------7---------7------------7--------0------0---------------0-5-|
4----7-------------7----------8-----------------------------------|
|----------x-0-0--------------|-----------------0-----------------|
|--5-------x----------------0-|----9------------------------------|

|--------3-----0h2---2p0--------0---|--2-----0-----0---------0---|
|--0-----0-----0----------0-4-5---0-|----0-----0---0-----4-----0-|
|----5---------0--------------------|------0-----0-0-----0-------|
|------0-----------0----------------|--------------0-----2-------|
|----------x------------------------|--2-----4-----5---0-0-------|
|--5-------x-4-4--------------------|----------------------------|

|---------0-0----------0-0---|---------0-0----------0-0---|
|-------------0-0----------0-|-------------0-0----------0-|
|-------8------------8-------|-------8------------8-------|
|----11-----------11---------|----11-----------11---------|
|-----------(b9)--7--------(b9)--|-----------(b9)--7--------(b9)--|
|--(b9)------------------------|--(b9)------------------------|

|---------0-0----------0-0---|---------0-0----------0-0---|
|-------------0-0----------0-|-------------0-0----------0-|
|-------8------------8-------|-------8------------8-------|
|----11-----------11---------|----11-----------11---------|
|-----------(b9)--7--------(b9)--|-----------(b9)--7--------(b9)--|
|--7-------------------------|--7-------------------------|

|--7------7------------7-----|---------7------------7(b9)------|
|-----------0------------0---|-----------0--------------0-----|
|-------8-----8------8-----8-|-------8-----8------8-------0---|
|----11-----------11---------|----11-----------11-------------|
|---------------(b9)-----------|---------------(b9)---------------|
|--(b9)------------------------|--(b9)----------------------------|
 
|----------0-------------0------|---------0-------------0-----|
|--12--------12------------12---|-----------12------------0---|
|--------8------8------8------8-|-------8------8------8-----0-|
|-----11------------11----------|----11------------11---------|
|-----------------(b9)------------|----------------(b9)-----------|
|---(b9)--------------------------|--(b9)-------------------------|

|--7------7------------7-----|---------7------------7(b9)------|
|-----------0------------0---|-----------0--------------0-----|
|-------8-----8------8-----8-|-------8-----8------8-------0---|
|----11-----------11---------|----11-----------11-------------|
|---------------(b9)-----------|---------------(b9)---------------|
|--(b9)------------------------|--(b9)----------------------------|

|----------0-------------0------|---------0-------------0-----|
|--12--------12------------12---|-----------12------------0---|
|--------8------8------8------8-|-------8------8------8-----0-|
|-----11------------11----------|----11------------11---------|
|-----------------(b9)------------|----------------(b9)-----------|
|---(b9)--------------------------|--(b9)-------------------------|

|----------------------------0-|----------------------------0-|
|------------0--------0--------|------------0--------0--------|
|-------0------0--------0------|-------0------0--------0------|
|-----0-------------0----------|-----0-------------0----------|
|---------9t-----7t-------9t---|---------7t-----5t-------7t---|
|--7t--------------------------|--5t--------------------------|

|-----------------------0-|---------------------|--------0-----------------|
|--------0--------0-------|----------------0----|--0-------0---------------|
|----0-----0--------0-----|------0--------------|----5-------0-3---------3-|
|--0------------0---------|----0----------------|------0----------0--------|
|------9t----7t-------9t--|--------11t-12t---5--|----------------------0---|
|-7t----------------------|-9t------------------|--5-----------4-----------|

|--------0-----------------|--------0-----------------|
|--0-------0---------------|--0-------0---------------|
|----5-------0-3---------3-|----5-------0-3---------3-|
|------0----------0--------|------0----------0--------|
|----------------------0---|----------------------0---|
|--5-----------4-----------|--5-----------4-----------|

|--------0----------||
|--0-------0--------||
|----5-------5-5----||
|------0------------||
|-------------------||
|--5-----------5----||


Sorry its not perfect. its just a tab i found and edited the bits i knew how to 
play that were wrong. i intend to finish learning the song and will submit a 
finished tab then.
Добавлено: 15.10.2013
Другие материалы по этой песне:

Страница создана 09.03.2012
http://primanota.ru/andy-mckee/dreamcatcher-chords.htm
Привет, Гость.
Предлагаем пройти революционный курс по гитаре.
Подарок от PrimaNota.Ru, забирай!