PrimaNota.ru - самый крупный в мире бесплатный архив песенных текстов, аккордов, табулатур и нот


Anberlin - Runaways - текст песни, бас-таба, видео

Регистрация Запомнить меня
Войти через:  Facebook Google Twitter Vk Yandex Mail.ru

Anberlin - Runaways - текст песни, бас-таба, видео

Печатать
Просмотров: 216
Уроки эстрадного вокала в Санкт-Петербурге
The Runaways
Anberlin
Never Take Friendship Personal

Tuning: Drop D  (G D A D)
Tabbed by Allstatecello

Guitar Intro


Intro
G--------------------|
D--------------------|    3x
A-22200000-----------|
D---------4-5-4-0-20-|

G-------------------|
D-------------------|
A-------------------|
D-2-22-2225-55-5555-|


Verse 1
G-----------------------------------------|
D-----------------------------------------|
A----------2--------------------2---------|
D-XX--------44---455---999/0-----44---455-|
  ^^
Bass Drum


Pre-Chorus
G--------------------------------------------------|
D--------------------------------------------------|
A-22-22-22-24455---------55-4-2-22-22-2425---------|
D---------------44-44-45------------------44-444-4-|

No Bass (2 measures)

Chorus 1
G------------------------------------------|
D------------------------------------------|
A-2-22-22-22-20-00-00-00-0-----------------|
D-------------------------44-455-000-02020-|

G--------------------------------------------------------------|
D--------------------------------------------------------------|
A-222-22-22-244550-00-00-00-0----------------------------------|
D----------------------------44-455-000-02020-44-455-000-02020-|


No Bass (4 measures)

Verse 2
G----------------------------------------|
D----------------------------------------|
A-22-------2-------------------2---------|
D-----------44---455--999/0-----44---455-|


Pre-Chorus 2
G---------------------------------------------------------|
D-----0------------------------------0--------------------|
A-22-2-2-202-24252----5-------5-4-2-2-2-202-24252---------|
D-----------------44-4-4-455-5-5------------------44-44-4-|

No Bass (2 measures)

Chorus 2
G-------------------------------------------|
D-------------------------------------------|
A-22-22-22-22-20-00-00-00-0-----------------|
D--------------------------44-455-000-02020-|

G---------------------------------------------------------------|
D---------------------------------------------------------------|
A-22-22-22-4425-00-00-04-45475----------------------------------|
D-----------------------------44-455-000-02020-44-455-000-02020-|


Bridge
G-/44444444--------------------------------------------------|
D------------------------------------------------------------|
A----------------------------------22-22-22-22-00-00-00-0----|
D----------55-55-55-55-00-00-00-00-----------------------4-4-|

G---------------------------------------------------|
D---------------------------------------------------|
A-------------------------22-22-22-22-00-00-00-0----|
D-55-55-55-55-00-00-00-00-----------------------4-4-|


Intro

No Bass (4 measures)

Solo      (eleven)
G-----7-9-7-1197-7----|
D-0/99-9-9-9----9-97--|
A-------------------9-|
D---------------------|

Final Chorus
G------------------------------------------|
D------------------------------------------|
A------------------------------------------|
D-9-99-99-99-97-77-77-77-744-455-000-02020-|

G---------------------------------------------------------------|
D---------------------------------------------------------------|
A-22-22-22-2445500-00-04-45475----------------------------------|
D-----------------------------44-455-000-02020-44-455-000-02020-|

No Bass (8 measures)

G------------------------------------------------------|
D----------------------------------------------5-4-2-0-|
A-----------------22-22-22-2445-00-4-5-4-7-5-4---------|
D-44-455-000-02020-------------------------------------|
                                   ^ ^ ^ ^ ^ ^ ^ ^ ^ ^
G----------------------------------|     triplets
D----------------------------------|
A----------------------------------|
D-44-455-000-0202044-455-000-02020-|
Добавлено: 06.03.2012
Другие материалы по этой песне:

Страница создана 02.03.2012
http://primanota.ru/anberlin/runaways-chords.htm
Привет, Гость.
Предлагаем пройти революционный курс по гитаре.
Подарок от PrimaNota.Ru, забирай!