PrimaNota.ru - самый крупный в мире бесплатный архив песенных текстов, аккордов, табулатур и нот


Anaal Nathrakh - Paradigm Shift Annihilation - таба, видео

Регистрация Запомнить меня
Войти через:  Facebook Google Twitter Vk Yandex Mail.ru

Anaal Nathrakh - Paradigm Shift Annihilation - таба, видео

Печатать
Просмотров: 129
Tunning C

Intro
|--------------------------------------------------------------------------|
|--------------------------------------------------------------------------|
|--------------------------------------------------------------------------|
|--------------------------------------------------------------------------|
|--------------------------------------------------------------------------|
|-1-1-1-1-1-1-1-0-0-0-0-0-0-0-4-3-2-1-1-1-1-1-1-1-1-0-0-0-0-0-0-3-----(3)--|

Riff 1a(gtr 1)
|---------------------------------------------|
|---------------------------------------------|
|---------------------------------------------|
|---------------------------------------------|
|33333333-22222222-6-5-4-33333333-22222222-5--|
|11111111-00000000-4-3-2-11111111-00000000-3--|

riff1b (gtr2)
|--------------------------------------------|
|--------------------------------------------|
|33333333-22222222-6-5-4-33333333-22222222-5-|
|11111111-00000000-4-3-2-11111111-00000000-3-|
|--------------------------------------------|
|--------------------------------------------|

Riff 2 a both gtrs
|---------------------------------------------|
|---------------------------------------------|
|---------------------------------------------|
|-77777777---------10-9-8-77777777----------8-|
|-55555555-88888888-8-7-6-55555555-88888888-6-|
|----------66666666----------------66666666---|

Riff 2 b both gtrs
|---------------------------------------------|
|---------------------------------------------|
|---------------------------------------------|
|-55555555----------8-7-6-55555555----------6-|
|-33333333-66666666-6-5-4-33333333-66666666-4-|
|----------44444444----------------44444444---|
Play riffs 2 a first an then play f b the again with fa and f b again

Riff 3a gtr1                        Only play this the last time
|---------------------------------------------|---------------|
|---------------------------------------------|---------------|
|---------------------------------------------|---------------|
|33333333-22222222-------3333333--22222222----|---------------|
|33333333-22222222-6-5-4-33333333-22222222-5--|-5-5-5-5-------|
|11111111-00000000-4-3-2-11111111-00000000-3--|-3-3-3-3-------|

riff 3 b gtr2
|--------------------------------------------|
|--------------------------------------------|
|33333333-22222222-6-5-4-33333333-22222222-5-|
|11111111-00000000-4-3-2-11111111-00000000-3-|
|--------------------------------------------|
|--------------------------------------------|


riff 4 (industrial Part)
|-------------------------|
|-------------------------|
|-------------------------|
|-------5-(5)-------4-(4)-|
|-2-(2)-3-(3)-2-(2)-2-(2)-|
|-0-(0)-------0-(0)-------|

riff 5 (all notes are tremolo picked)
|--------------------------------------|
|--------------------------------------|
|--------------------------------------|
|---9"--8"---9"--8"7"--9"--10"--9"--8"-|
|-7"--7"---7"--7"----7"--7"---7"--7"---|
|--------------------------------------|

Riff 6
 -------------------------|
|-------------------------|
|-------------------------|
|-------5-(5)-------4-(4)-|
|-2-(2)-3-(3)-2-(2)-2-(2)-|
|-0-(0)-------0-(0)-------|

riff 7a
|---------------------------------------------|
|---------------------------------------------|
|---------------------------------------------|
|---------------------------------------------|
|-------------------6-5-4-------------------5-|
|-11111111-00000000-4-3-2-11111111-00000000-3-|

Riff 7 b
|----------------------------------------------|
|----------------------------------------------|
|----------------------------------------------|
|----------------------------------------------|
|-------------------6-5-4--------------------5-|
|-------------------4-3-2--------------------3-|

riff 8 a gtr1
|--------------------------------------------|
|--------------------------------------------|
|--------------------------------------------|
|--------------------------------------------|
|33333333-22222222-6-5-4-33333333-22222222-5-|
|11111111-00000000-4-3-2-11111111-00000000-3-|

Riff 8 b gtr 2
|--------------------------------------------|
|--------------------------------------------|
|33333333-22222222-6-5-4-33333333-22222222-5-|
|11111111-00000000-4-3-2-11111111-00000000-3-|
|--------------------------------------------|
|--------------------------------------------|

riff 9 a
|--------------------------------------------|
|--------------------------------------------|
|--------------------------------------------|
|--------------------------------------------|
|--------------------------------------------|
|11111111-00000000-4-3-2-11111111 00000000-3-|

riff 9 b
|--------------------------------------------|
|--------------------------------------------|
|33333333-22222222-6-5-4-33333333-22222222-5-|
|11111111-00000000-4-3-2-11111111-00000000-3-|
|--------------------------------------------|
|--------------------------------------------|

Riff 10 a Gtr 1
|---------------------------|-----------------|
|---------------------------|-----------------|
|---------------------------|-----------------|
|-2-3--3-5--2-3--3-5--2-3---|-----------------|
|-2-3--3-5--2-3--3-5--2-3---|-2-(2)-----------|
|-0-1--1-2--0-1--1-2--0-1---|-0-(0)-----------|

Riff 10 b gtr 2
|-----7----6----7----6----7--|
|-----5----5----5----5----5--|
|----------------------------|
|----------------------------|
|----------------------------|
|----------------------------|
Добавлено: 25.04.2012
Другие материалы по этой песне:
  • Аккорды и текст

Страница создана 25.04.2012
http://primanota.ru/anaal-nathrakh/paradigm-shift-annihilation-chords.htm
Привет, Гость.
Предлагаем пройти революционный курс по гитаре.
Подарок от PrimaNota.Ru, забирай!