PrimaNota.ru - самый крупный в мире бесплатный архив песенных текстов, аккордов, табулатур и нот


Anaal Nathrakh - A Metaphor For The Dead - таба, видео

Регистрация Запомнить меня
Войти через:  Facebook Google Twitter Vk Yandex Mail.ru

Anaal Nathrakh - A Metaphor For The Dead - таба, видео

Печатать
Просмотров: 356
Уроки эстрадного вокала в Санкт-Петербурге
-------------------------------------------------------------------------------
                             A METAPHOR FOR THE DEAD - Anaal Nathrakh
-------------------------------------------------------------------------------
Tabbed by: Lezada
E-mail: mizen1@hotmail.com

Tuning: Standard

e|--------------------------------------------------|
B|--------------------------------------------------|
G|-------------444433334444------------44443333-----|
D|---------4444------------555544445555--------5555-|
A|-22225555-----------------------------------------|
E|--------------------------------------------------|

e|--------------------------------------------------|
B|--------------------------------------------------|
G|-------------333322223333-------------------------|
D|---------3333------------4444333344443333---------|
A|-11114444--------------------------------55554444-|
E|--------------------------------------------------|

e|--------------------------------------------------|
B|--------------------------------------------------|
G|-------------444433334444------------44443333-----|
D|---------4444------------555544445555--------5555-|
A|-22225555-----------------------------------------|
E|--------------------------------------------------|

e|-------------------------------------------------------------|
B|-------------------------------------------------------------|
G|-------------333322223333------------------------------------|
D|---------3333------------4444333344443333--------------------|
A|-11114444--------------------------------555544445-[let ring]|
E|-------------------------------------------------------------|

e|-7-----9-----10-----7-----|-------6-----------6-----|     
B|---7-------7----7-------7-|-8-----------8-----------|      
G|-----7---7--------7---7---|---7-------7---7-------7-|      
D|--------------------------|-----8---8-------8---8---|      
A|--------------------------|-------------------------|\      
E|--------------------------|-------------------------| \    
                                                         > x2
e|-6-----8-----9-----6-----|-------------------------|  /    
B|---6-------6---6-------6-|-7-----7-----7-----7-----| /      
G|-----6---6-------6---6---|---6-------6---6-------6-|/      
D|-------------------------|-----8---8-------8---8---|       
A|-------------------------|-------------------------|       
E|-------------------------|-------------------------|      

e|------------|------------------------------------|
B|------------|------------------11-11-11-11-11-11-|
G|------------|------------------------------------|
D|------------|------------------------------------|    x2
A|------------|------------------------------------|
E|------------|------------------------------------|


e|-8---8---8---8---8---8---5--5--5--5--5--5-|
B|-8---8---8---8---8---8---5--5--5--5--5--5-|
G|-9---9---9---9---9---9---5--5--5--5--5--5-|
D|-10--10--10--10--10--10--7--7--7--7--7--7-|
A|-10--10--10--10--10--10--7--7--7--7--7--7-|\
E|-8---8---8---8---8---8---5--5--5--5--5--5-| \
                                               >  x2   
e|-8---8---8---8---8---8---7--7--7--7--7--7-| /
B|-8---8---8---8---8---8---7--7--7--7--7--7-|/
G|-9---9---9---9---9---9---8--8--8--8--8--8-|
D|-10--10--10--10--10--10--9--9--9--9--9--9-|
A|-10--10--10--10--10--10--9--9--9--9--9--9-|
E|-8---8---8---8---8---8---7--7--7--7--7--7-|

e|--------------------------------------------------|
B|--------------------------------------------------|
G|-------------444433334444------------44443333-----|
D|---------4444------------555544445555--------5555-|
A|-22225555-----------------------------------------|
E|--------------------------------------------------|

e|--------------------------------------------------|
B|--------------------------------------------------|
G|-------------333322223333-------------------------|
D|---------3333------------4444333344443333---------|
A|-11114444--------------------------------55554444-|
E|--------------------------------------------------|

e|--------------------------------------------------|
B|--------------------------------------------------|
G|-------------444433334444------------44443333-----|
D|---------4444------------555544445555--------5555-|
A|-22225555-----------------------------------------|
E|--------------------------------------------------|

e|-------------------------------------------------------------|
B|-------------------------------------------------------------|
G|-------------333322223333------------------------------------|
D|---------3333------------4444333344443333--------------------|
A|-11114444--------------------------------555544445-[let ring]|
E|-------------------------------------------------------------|

e|-7-----9-----10-----7-----|-------6-----------6-----|     
B|---7-------7----7-------7-|-8-----------8-----------|      
G|-----7---7--------7---7---|---7-------7---7-------7-|      
D|--------------------------|-----8---8-------8---8---|      
A|--------------------------|-------------------------|\      
E|--------------------------|-------------------------| \    
                                                         > x2
e|-6-----8-----9-----6-----|-------------------------|  /    
B|---6-------6---6-------6-|-7-----7-----7-----7-----| /      
G|-----6---6-------6---6---|---6-------6---6-------6-|/      
D|-------------------------|-----8---8-------8---8---|       
A|-------------------------|-------------------------|       
E|-------------------------|-------------------------|      

e|------------|------------------------------------|
B|------------|------------------11-11-11-11-11-11-|
G|------------|------------------------------------|
D|------------|------------------------------------|    x2
A|------------|------------------------------------|
E|------------|------------------------------------|


e|-8---8---8---8---8---8---5--5--5--5--5--5-|
B|-8---8---8---8---8---8---5--5--5--5--5--5-|
G|-9---9---9---9---9---9---5--5--5--5--5--5-|
D|-10--10--10--10--10--10--7--7--7--7--7--7-|
A|-10--10--10--10--10--10--7--7--7--7--7--7-|\
E|-8---8---8---8---8---8---5--5--5--5--5--5-| \ 
                                               > Continues the rest of the song while the
e|-8---8---8---8---8---8---7--7--7--7--7--7-| /   other two guitars plays.
B|-8---8---8---8---8---8---7--7--7--7--7--7-|/
G|-9---9---9---9---9---9---8--8--8--8--8--8-|
D|-10--10--10--10--10--10--9--9--9--9--9--9-|
A|-10--10--10--10--10--10--9--9--9--9--9--9-|
E|-8---8---8---8---8---8---7--7--7--7--7--7-|

Guitar 2

e|-------|----7-------------------------------|----7-------------------------------|
B|-------|-------8--7--8--7--8--7-------------|-------8--7--8--7--10-8--7-----7----|
G|-----7-|-9-----------------------9--7--9--7-|-9--------------------------9-----7-|  x4 
D|-------|------------------------------------|------------------------------------|  Guitar 3 steps in 
A|-------|------------------------------------|------------------------------------|   after 2nd time
E|-------|------------------------------------|------------------------------------|


e|--------------------|
B|--------7brbr-------|
G|-9-------------9--7-| x4
D|--------------------|
A|--------------------|
E|--------------------|

e|--------------------------------|-------------------------------|
B|--------7--8--7--8--8/10--8--7--|-------7--8--7--8--8/12--10--8-|
G|--9-----------------------------|-9-----------------------------|
D|--------------------------------|-------------------------------|
A|--------------------------------|-------------------------------|\
E|--------------------------------|-------------------------------| \
                                                                     >  x2
e|--------------------------------|--------7----------------------| /   Guitar 3 steps in after 1st time
B|--------7--8--7--8--8/10--8--7--|----------------10-------8-----|/
G|--9-----------------------------|-8-----------------------------|
D|--------------------------------|-------------------------------|
A|--------------------------------|-------------------------------|
E|--------------------------------|-------------------------------|

e|-------|----7-------------------------------|----7-------------------------------|
B|-------|-------8--7--8--7--8--7-------------|-------8--7--8--7--10-8--7-----7----|
G|-----7-|-9-----------------------9--7--9--7-|-9--------------------------9-----7-|  x4
D|-------|------------------------------------|------------------------------------|  Guitar 3 steps in 
A|-------|------------------------------------|------------------------------------|   after 2nd time
E|-------|------------------------------------|------------------------------------|

e|--------------------|
B|--------7brbr-------|
G|-9-------------9--7-| x4
D|--------------------|
A|--------------------|
E|--------------------|

e|--------------------------------|-------------------------------|
B|--------7--8--7--8--8/10--8--7--|-------7--8--7--8--8/12--10--8-|
G|--9-----------------------------|-9-----------------------------|
D|--------------------------------|-------------------------------|
A|--------------------------------|-------------------------------|\
E|--------------------------------|-------------------------------| \
                                                                     >  Fading
e|--------------------------------|--------7----------------------| /   
B|--------7--8--7--8--8/10--8--7--|----------------10-------8-----|/
G|--9-----------------------------|-8-----------------------------|
D|--------------------------------|-------------------------------|
A|--------------------------------|-------------------------------|
E|--------------------------------|-------------------------------|

Guitar 3

e|-------|---10-------------------------------|----10-------------------------------|
B|-------|------12-10-12-10-12-10-------------|-------12-10-12-10-13-12-10----10----|
G|----11-|-12---------------------12-11-12-11-|-12-------------------------12----11-|  x2 
D|-------|------------------------------------|-------------------------------------|  
A|-------|------------------------------------|-------------------------------------|
E|-------|------------------------------------|-------------------------------------|


e|--------------------|
B|-------10brbr-------|
G|-12-----------12-11-| x4
D|--------------------|
A|--------------------|
E|--------------------|

e|--------------------------------|-------------------------------|
B|--------10-12-10-12-12/13-12-10-|-------10-12-10-12-12/15-13-12-|
G|--12----------------------------|-12----------------------------|
D|--------------------------------|-------------------------------|
A|--------------------------------|-------------------------------|
E|--------------------------------|-------------------------------|

e|--------------------------------|--------10---------------------|
B|--------10-12-10-12-12/13-12-10-|----------------13------12-----|
G|--12----------------------------|-11----------------------------|
D|--------------------------------|-------------------------------|
A|--------------------------------|-------------------------------|
E|--------------------------------|-------------------------------|

e|-------|---10-------------------------------|----10-------------------------------|
B|-------|------12-10-12-10-12-10-------------|-------12-10-12-10-13-12-10----10----|
G|----11-|-12---------------------12-11-12-11-|-12-------------------------12----11-|  x2 
D|-------|------------------------------------|-------------------------------------|  
A|-------|------------------------------------|-------------------------------------|
E|-------|------------------------------------|-------------------------------------|

e|--------------------|
B|-------10brbr-------|
G|-12-----------12-11-| x4
D|--------------------|
A|--------------------|
E|--------------------|

e|--------------------------------|-------------------------------|
B|--------10-12-10-12-12/13-12-10-|-------10-12-10-12-12/15-13-12-|
G|--12----------------------------|-12----------------------------|
D|--------------------------------|-------------------------------|
A|--------------------------------|-------------------------------|\
E|--------------------------------|-------------------------------| \
                                                                     > Fading
e|--------------------------------|--------10---------------------| /
B|--------10-12-10-12-12/13-12-10-|----------------13------12-----|/
G|--12----------------------------|-11----------------------------|
D|--------------------------------|-------------------------------|
A|--------------------------------|-------------------------------|
E|--------------------------------|-------------------------------|



************************************

| /     Slide up
| brbr  Bend, release, bend, release

************************************
Добавлено: 17.06.2013
Другие материалы по этой песне:
  • Аккорды и текст

Страница создана 17.06.2013
http://primanota.ru/anaal-nathrakh/a-metaphor-for-the-dead-chords.htm
Привет, Гость.
Предлагаем пройти революционный курс по гитаре.
Подарок от PrimaNota.Ru, забирай!