PrimaNota.ru - самый крупный в мире бесплатный архив песенных текстов, аккордов, табулатур и нот


Amr Diab - Tamaly Maak - текст песни, таба, видео

Регистрация Запомнить меня
Войти через:  Facebook Google Twitter Vk Yandex Mail.ru

Amr Diab - Tamaly Maak - текст песни, таба, видео

Печатать
Просмотров: 163
-------------------------------------------------------------------------------
    Tamaly Maak Acoustic - Fauda Version - Amr Diab - Version by Tzahi Levi
-------------------------------------------------------------------------------
Tabbed by:Omer Avi
E-mail:Omeravi23@gmail.com

Tuning:Standard

Chords: I'm not sure all the chord names match the chords i meant, thats why i added an explantion of every
chord finger placement

         E A D G B E ->
Bmadd11: x 2 4 4 3 0   (Its a Bm with an open High e note)
Gm13:    3 x 4 4 3 0   (Same as last chord, just the bass changes)
Em:      0 2 2 0 0 0
F#11:    2 4 4 3 0 0   (regular F# With the B and High e strings strung open)
A:       x 0 2 2 2 0
D:       x x 0 2 3 2

Opening:

  Bmadd11                            Gm13
e|---------------0------------------|---------------0-------------------------|
B|-------3---------------3-------3--|-------3----------3---3---3---3----------|
G|-----4-----4-------4-------4------|---4-------4------4---4---4---4----------|
D|---4---------4-------4-------4----|-----4-------4------4---4---4------------|
A|-2--------------------------------|-----------------------------------------|
E|----------------------------------|-3---------------------------------------|

  Em                          F#11
e|-------------0-------------|--------------0------------------------------0--|
B|------0------------0-------|------0---------------0-------0-------0---------|
G|--0------0-----0-----0-----|--3-------3-------3-------3-------3------3------|
D|----2------2-----2---------|----4-------4-------4-------4-------4------4----|
A|---------------------------|------------------------------------------------|
E|0----------------------1---|2-------------------------------2---------------|



Bmadd11
Tamally maak

Bmadd11                            
We law hata ba eed any,

          Em
Fe alby hawak.

         A
Tamally maak
          F#11
tamally fi baly wa fi alby
        F#11
Wala bansak
         Em
Tamally waheshny,
 A               D  F#11
Low hata bakoon waiak

Bmadd11
Tamally maak

Bmadd11
Maak alby, maak rohy

           Em
Ya aghla habib

           A
Ya aghla habib.

        F#11
We mahma tekoon baeed alny

        F#11
Le alby areeb.

           Em           A
Ya omry el gai wel hader,

              D   F#11
Ya aghla naseeb.



Bmadd11                            
Tamally habibi bashtaklak

Gm13
Tamally alaya men badlak

Em                          
We law hawalaya kol el koon

F#11
Bardo ya habibi bahtaglak


Bmadd11                            
Tamally habibi bashtaklak

Gm13
Tamally alaya men badlak

Em                          
We law hawalaya kol el doon

F#11
Bardo ya habibi bahtaglak


Copyright Disclaimer Under Section 107 of the Copyright Act 1976, 
allowance is made for fair use for purposes such as criticism, 
comment, news reporting, teaching, scholarship, and research. 
Fair use is a use permitted by copyright statute that might otherwise be infringing. 
Non-profit, educational or personal use tips the balance in favor of fair use.

Добавлено: 28.12.2015
Вам также может быть интересно:
Другие материалы по этой песне:
  • Аккорды и текст

Страница создана 02.03.2012
http://primanota.ru/amr-diab/tamaly-maak-chords.htm
Привет, Гость.
Предлагаем пройти революционный курс по гитаре.
Подарок от PrimaNota.Ru, забирай!