PrimaNota.ru - самый крупный в мире бесплатный архив песенных текстов, аккордов, табулатур и нот


Ally Kerr - Without You - аккорды и текст, видео

Регистрация Запомнить меня
Войти через:  Facebook Google Twitter Vk Yandex Mail.ru

Ally Kerr - Without You - аккорды и текст, видео

Печатать
Просмотров: 93
Without You
Ally Kerr
Tabbed by: Greentoped

Without You
Ally Kerr

(/) Slide Up  (\) Slide Down  (h) Hammer On  (p) Pull Off
Tuning: Standard

C                      Am
Do you need me as much as I need you
             F                      C
I don't know if you do or, if we're through
                             Am
Do you take me, well just the way I am
             F             C           E
I don't know if you can or understand
                    G
I don't know what is gonna happen

Without you

Without you


C                                  Am
Do you see things well, through my rosy eyes
             F                        C
I can't keep getting high, it's all a lie
                             Am
Do you share in, well all my hopes and plans
           F                              C   E
you hear a boy that's trapped, and not a  man
                        G
I hope I never find the answers
        C  F
Without you
        G
Without you

[solo]
E|--------------6/8--7h8p7--8--7-------------------------------------------------|
B|-----------8--------------------10--------8/10--10--10--8----------------------|
G|--5h7--9---------------------------9--------------------------------------7/9--| (x2)
D|-----------------------------------------------------------10--12--10h12-------|
A|-------------------------------------------------------------------------------|
E|-------------------------------------------------------------------------------|

E|--10/12--12--12--10h12--10----------------------------------------------------------------------------------|
B|------------------------------13--13--13/15--13--13/15--13--13----13--13\10--10--10\8--8--8\5--5--5p3--5----|
G|----------------------------------------------------------------------------------------------------------5-|
D|------------------------------------------------------------------------------------------------------------|
A|------------------------------------------------------------------------------------------------------------|
E|------------------------------------------------------------------------------------------------------------|


C                        Am
Do you need me, as much  as I need you
          F                           C
I hope to god you do, or else we're through
                          Am
when I see you again some maybe day
              F                         C
the time that brought me here, it slips away
E                         G
I know I question all the answers
        C   F
Without you
        C   F
Without you
        G
Without you

Without you
Добавлено: 18.06.2016
Другие материалы по этой песне:
  • Аккорды и текст

Страница создана 18.06.2016
http://primanota.ru/ally-kerr/without-you-chords.htm
Привет, Гость.
Предлагаем пройти революционный курс по гитаре.
Подарок от PrimaNota.Ru, забирай!