PrimaNota.ru - самый крупный в мире бесплатный архив песенных текстов, аккордов, табулатур и нот


All Time Low - Stella Live - таба, видео

Регистрация Запомнить меня
Войти через:  Facebook Google Twitter Vk Yandex Mail.ru

All Time Low - Stella Live - таба, видео

Печатать
Просмотров: 141
-------------------------------------------------------------------------------
                             "Stella (Live)," All Time Low
-------------------------------------------------------------------------------
Tabbed by: Ty
Email:

Tuning: Half-step down/Drop C#

*NOTE: Single numbers NOT separated by dashes (-) means they are played as 16th notes.
"1010" means ten-ten, not one-zero-one-zero.* 

Alex's Part (Rhythm):

INTRO/INTERLUDE:
d#|---------------------------------------------------------------------------|
A#|---------------------------------------------------------------------------|
F#|---------------------------------------------------------------------------|
C#|--3~-3-5-7--2~-2-5-7-----7-5------7-5--------------------------------------|
G#|---------------------5~-5-----3~-3-----------------------------------------|
C#|---------------------------------------------------------------------------|

VERSE:
d#|---------------------------------------------------------------------------|
A#|---------------------------------------------------------------------------|
F#|---------------------------------------------------------------------------|
C#|--3------------------------------------------------------------------------|
G#|--3------------------------------------------------------------------------|
C#|--3------------------------------------------------------------------------|
PM   .

d#|---------------------------------------------------------------------------|
A#|---------------------------------------------------------------------------|
F#|----------------------33333333--55555555-----------------------------------|
C#|--33333333--00000000--33333333--55555555-----------------------------------|
G#|--33333333--00000000--11111111--33333333-----------------------------------|
C#|--33333333--00000000-------------------------------------------------------|
PM   ........  ........  

CHORUS:
d#|---------------------------------------------------------------------------|
A#|---------------------------------------------------------------------------|
F#|--------------------------------55555555-----------------------------------|
C#|--33333333--77777777--88888888--55555555-----------------------------------|
G#|--33333333--77777777--88888888--33333333-----------------------------------|
C#|--33333333--77777777--88888888---------------------------------------------|

d#|---------------------------------------------------------------------------|
A#|---------------------------------------------------------------------------|
F#|--------------------------------3~~~~~~~-----------------------------------|
C#|--33333333--77777777--0~~~~~~~--3~~~~~~~-----------------------------------|
G#|--33333333--77777777--0~~~~~~~--1~~~~~~~-----------------------------------|
C#|--33333333--77777777--0~~~~~~~---------------------------------------------|

INTRO/INTERLUDE:
d#|---------------------------------------------------------------------------|
A#|---------------------------------------------------------------------------|
F#|---------------------------------------------------------------------------|
C#|--3~-3-5-7--2~-2-775357-------78757------7h8-5h7-3h5-2---------------------|
G#|--------------------------5~-5-------3~-3----------------------------------|
C#|---------------------------------------------------------------------------|

VERSE:
d#|---------------------------------------------------------------------------|
A#|---------------------------------------------------------------------------|
F#|---------------------------------------------------------------------------|
C#|--3------------------------------------------------------------------------|
G#|--3------------------------------------------------------------------------|
C#|--3------------------------------------------------------------------------|
PM   .

d#|---------------------------------------------------------------------------|
A#|---------------------------------------------------------------------------|
F#|----------------------33333333--55555555-----------------------------------|
C#|--33333333--00000-----33333333--55555555-----------------------------------|
G#|--33333333--00000-----11111111--33333333-----------------------------------|
C#|--33333333--00000----------------------------------------------------------|
PM   ........  .....  

CHORUS:
d#|---------------------------------------------------------------------------|
A#|---------------------------------------------------------------------------|
F#|--------------------------------55555555-----------------------------------|
C#|--33333333--77777777--88888888--55555555-----------------------------------|
G#|--33333333--77777777--88888888--33333333-----------------------------------|
C#|--33333333--77777777--88888888---------------------------------------------|

d#|---------------------------------------------------------------------------|
A#|---------------------------------------------------------------------------|
F#|--------------------------------3~~~~~~~-----------------------------------|
C#|--33333333--77777777--0~~~~~~~--3~~~~~~~-----------------------------------|
G#|--33333333--77777777--0~~~~~~~--1~~~~~~~-----------------------------------|
C#|--33333333--77777777--0~~~~~~~---------------------------------------------|

BRIDGE:
d#|---------------------------------------------------------------------------|
A#|---------------------------------------------------------------------------|
F#|--77777777--55555555--3~~~~~~~------------5~~~~~~~------------56-----------|
C#|--77777777--55555555--3~~~~~~~--3~~~~~~~--5~~~~~~~--3~~~~~~~--56-----------|
G#|--55555555--33333333--1~~~~~~~--3~~~~~~~--3~~~~~~~--3~~~~~~~--34-----------|
C#|--------------------------------3~~~~~~~------------3~~~~~~~---------------|

d#|---------------------------------------------------------------------------|
A#|---------------------------------------------------------------------------|
F#|--77777777--55555555--3~~~~~~~------------5~~~~~~~-------------------------|
C#|--77777777--55555555--3~~~~~~~--3~~~~~~~--5~~~~~~~-------------------------|
G#|--55555555--33333333--1~~~~~~~--3~~~~~~~--3~~~~~~~-------------------------|
C#|--------------------------------3~~~~~~~-----------------------------------|

BRIDGE/CHORUS
d#|---------------------------------------------------------------------------|
A#|---------------------------------------------------------------------------|
F#|--------------------------------5~~~~~~~-----------------------------------|
C#|--3~~~~~~~--7~~~~~~~--8~~~~~~~--5~~~~~~~-----------------------------------|
G#|--3~~~~~~~--7~~~~~~~--8~~~~~~~--3~~~~~~~-----------------------------------|
C#|--3~~~~~~~--7~~~~~~~--8~~~~~~~---------------------------------------------|

CHORUS:
d#|---------------------------------------------------------------------------|
A#|---------------------------------------------------------------------------|
F#|--------------------------------55555555-----------------------------------|
C#|--33333333--77777777--88888888--55555555-----------------------------------|
G#|--33333333--77777777--88888888--33333333-----------------------------------|
C#|--33333333--77777777--88888888---------------------------------------------|

d#|---------------------------------------------------------------------------|
A#|---------------------------------------------------------------------------|
F#|--------------------------------3~~~~~~~-----------------------------------|
C#|--33333333--77777777--0~~~~~~~--3~~~~~~~-----------------------------------|
G#|--33333333--77777777--0~~~~~~~--1~~~~~~~-----------------------------------|
C#|--33333333--77777777--0~~~~~~~---------------------------------------------|

Jack's Part (Lead):

INTRO/INTERLUDE:
d#|---------------------------------------------------------------------------|
A#|---------------------------------------------------------------------------|
F#|---------------------------------------------------------------------------|
C#|--33333333--77777777--88888888--1010101010101010---------------------------|
G#|--33333333--77777777--88888888--1010101010101010---------------------------|
C#|--33333333--77777777--88888888--1010101010101010---------------------------|

VERSE:
d#|---------------------------------------------------------------------------|
A#|---------------------------------------------------------------------------|
F#|---------------------------------------------------------------------------|
C#|--33333333--00000000--88888888--1010101010101010---------------------------|
G#|--33333333--00000000--88888888--1010101010101010---------------------------|
C#|--33333333--00000000--88888888--1010101010101010---------------------------|
PM   ........  ........  ........  . . . . . . . .

d#|---------------------------------------------------------------------------|
A#|---------------------------------------------------------------------------|
F#|---------------------------------------------------------------------------|
C#|--33333333--00000000--88888888--1010101010101010---------------------------|
G#|--33333333--00000000--88888888--1010101010101010---------------------------|
C#|--33333333--00000000--88888888--1010101010101010---------------------------|
PM   ........  ........ 

CHORUS:
d#|---------------------------------------------------------------------------|
A#|---------------------------------------------------------------------------|
F#|-----9-1010-99----9-1010-99----9-1010-99----9-1010-99----------------------|
C#|--10-----------10-----------11-----------11--------------------------------|
G#|---------------------------------------------------------------------------|
C#|---------------------------------------------------------------------------|

d#|---------------------------------------------------------------------------|
A#|---------------------------------------------------------------------------|
F#|--7-9-1010-99--7-9-1010-99----9-1010-99--12-9-10-9-------------------------|
C#|----------------------------10---------------------------------------------|
G#|---------------------------------------------------------------------------|
C#|---------------------------------------------------------------------------|

d#|---------------------------------------------------------------------------|
A#|---------------------------------------------------------------------------|
F#|-----9-1010-99----9-1010-99----9-1010-99----9-1010-99----------------------|
C#|--10-----------10-----------11-----------11--------------------------------|
G#|---------------------------------------------------------------------------|
C#|---------------------------------------------------------------------------|

d#|---------------------------------------------------------------------------|
A#|---------------------------------------------------------------------------|
F#|--7-9-1010-99--7-9-1010-99--10---------------------------------------------|
C#|---------------------------------------------------------------------------|
G#|---------------------------------------------------------------------------|
C#|---------------------------------------------------------------------------|

INTRO/INTERLUDE:
d#|---------------------------------------------------------------------------|
A#|---------------------------------------------------------------------------|
F#|---------------------------------------------------------------------------|
C#|--33333333--77777777--88888888--1010101010101010---------------------------|
G#|--33333333--77777777--88888888--1010101010101010---------------------------|
C#|--33333333--77777777--88888888--1010101010101010---------------------------|

VERSE:
d#|---------------------------------------------------------------------------|
A#|---------------------------------------------------------------------------|
F#|---------------------------------------------------------------------------|
C#|--33333333--00000000--88888888--1010101010101010---------------------------|
G#|--33333333--00000000--88888888--1010101010101010---------------------------|
C#|--33333333--00000000--88888888--1010101010101010---------------------------|
PM   ........  ........  ........  . . . . . . . .

d#|---------------------------------------------------------------------------|
A#|---------------------------------------------------------------------------|
F#|---------------------------------------------------------------------------|
C#|--33333333--00000-----88888888--1010101010101010---------------------------|
G#|--33333333--00000-----88888888--1010101010101010---------------------------|
C#|--33333333--00000-----88888888--1010101010101010---------------------------|
PM   ........  ..... 

CHORUS:
d#|---------------------------------------------------------------------------|
A#|---------------------------------------------------------------------------|
F#|-----9-1010-99----9-1010-99----9-1010-99----9-1010-99----------------------|
C#|--10-----------10-----------11-----------11--------------------------------|
G#|---------------------------------------------------------------------------|
C#|---------------------------------------------------------------------------|

d#|---------------------------------------------------------------------------|
A#|---------------------------------------------------------------------------|
F#|--7-9-1010-99--7-9-1010-99----9-1010-99--12-9-10-9-------------------------|
C#|----------------------------10---------------------------------------------|
G#|---------------------------------------------------------------------------|
C#|---------------------------------------------------------------------------|

d#|---------------------------------------------------------------------------|
A#|---------------------------------------------------------------------------|
F#|-----9-1010-99----9-1010-99----9-1010-99----9-1010-99----------------------|
C#|--10-----------10-----------11-----------11--------------------------------|
G#|---------------------------------------------------------------------------|
C#|---------------------------------------------------------------------------|

d#|---------------------------------------------------------------------------|
A#|---------------------------------13~---------------------------------------|
F#|--7-9-1010-99--7-9-1010-99--12~--------------------------------------------|
C#|---------------------------------------------------------------------------|
G#|---------------------------------------------------------------------------|
C#|---------------------------------------------------------------------------|

BRIDGE:
d#|---------------------------------------------------------------------------|
A#|---------------------------------------------------------------------------|
F#|--1010101010101010--99999999--10~~~--55~~~~--12~~~--1010~~~~---------------|
C#|--x-x-x-x-x-x-x-x---xxxxxxxx--x~~~---xx~~~~--x~~~~--x-x~~~~~---------------|
G#|--8-8-8-8-8-8-8-8---77777777--8~~~---33~~~~--10~~~--8-8~~~~~---------------|
C#|---------------------------------------------------------------------------|

d#|---------------------------------------------------------------------------|
A#|---------------------------------------------------------------------------|
F#|--1010101010101010--99999999--10~~~--55~~~~--12~~~~~~~~--------------------|
C#|--x-x-x-x-x-x-x-x---xxxxxxxx--x~~~---xx~~~~--x~~~~~~~~~--------------------|
G#|--8-8-8-8-8-8-8-8---77777777--8~~~---33~~~~--10~~~~~~~~--------------------|
C#|---------------------------------------------------------------------------|

BRIDGE CHORUS:
d#|---------------------------------------------------------------------------|
A#|---------------------------------------------------------------------------|
F#|---------------------------------------------------------------------------|
C#|---------------------------------------------------------------------------|
G#|---------------------------------------------------------------------------|
C#|---------------------------------------------------------------------------|

CHORUS:
d#|---------------------------------------------------------------------------|
A#|---------------------------------------------------------------------------|
F#|-----9-1010-99----9-1010-99----9-1010-99----9-1010-99----------------------|
C#|--10-----------10-----------11-----------11--------------------------------|
G#|---------------------------------------------------------------------------|
C#|---------------------------------------------------------------------------|

d#|---------------------------------------------------------------------------|
A#|---------------------------------------------------------------------------|
F#|--7-9-1010-99--7-9-1010-99----9-1010-99--12-9-10-9-------------------------|
C#|----------------------------10---------------------------------------------|
G#|---------------------------------------------------------------------------|
C#|---------------------------------------------------------------------------|

d#|---------------------------------------------------------------------------|
A#|---------------------------------------------------------------------------|
F#|-----9-1010-99----9-1010-99----9-1010-99-----------------------------------|
C#|--10-----------10-----------11-----------11--------------------------------|
G#|---------------------------------------------------------------------------|
C#|---------------------------------------------------------------------------|

d#|---------------------------------------------------------------------------|
A#|---------------------------------------------------------------------------|
F#|--7-9-1010-99--7-9-1010-99--10~--------------------------------------------|
C#|---------------------------------------------------------------------------|
G#|---------------------------------------------------------------------------|
C#|---------------------------------------------------------------------------|



************************************

| /   slide up
| \   slide down
| h   hammer-on
| p   pull-off
| ~   vibrato
| +   harmonic
| x   Mute note
| b   Bend
| pb  Pre-bend
| br  Bend release
| pbr Pre-bend release
| brb Bend release bend

************************************
Добавлено: 27.02.2012
Другие материалы по этой песне:

Страница создана 27.02.2012
http://primanota.ru/all-time-low/stella-live-chords.htm
Привет, Гость.
Предлагаем пройти революционный курс по гитаре.
Подарок от PrimaNota.Ru, забирай!