PrimaNota.ru - самый крупный в мире бесплатный архив песенных текстов, аккордов, табулатур и нот


Alkaline Trio - Wash Away - аккорды и текст, таба, бас-таба, видео

Регистрация Запомнить меня
Войти через:  Facebook Google Twitter Vk Yandex Mail.ru

Alkaline Trio - Wash Away - аккорды и текст, таба, бас-таба, видео

Печатать
Просмотров: 264
Wash Away
Alkaline Trio
this song is one of the best i know, and i felt the need to transcribe it. 
i'm not sure if there even is an acoustic version of this song, but i play 
it acoustic, and i just sort of wanted to put one up here.

-daveb-

 A lk a li n e  Tr i o

Intro:
e|------------------------|-----------------|
B|------------------------|-----------------|
G|---77777777-77667766----|-10--------pick--|
D|---55555555-77777777----|-10-(x16)--slide-|
A|------------55555555----|-8---------------|
E|------------------------|-----------------|

C
Sad memories the gathering rain brings 
F
I loved her but I'll never see her face again 
C
Clouds raise their heads in the morning 
F
the way I once walked on by her 
C
But now she's gone and I'll never raise my face again, 
F
Raise my face again

A                       
White horses dragged my lover from me 
             Bb                                      A 
(the clouds) rushed in and drowned my sorrow with the rain,
             Bb C D
with the rain

C
My friends try to lift me 
F
they understand how I'm feeling 
C
but the truth holds me down 
F
she came and went with the rain 
C                           F
I watched her walk into the rain
C                           F
I watched her walk into the rain

A
White horses dragged my lover from me 
             Bb                                      A 
(The clouds) rushed in and drowned my sorrow with the rain,
             Bb C D
with the rain 

Em
Now always the storms come
C
Raindrops run down my windows 
Em
All that's left is her picture 
C
but someday it to will 
Em
wash away... 
C
wash away... 
Em
I watched her walk away, 
C
in the rain

Solo:
e|---------------------------------|
B|-7h8-8-8-8-8-8-8-8-7h8-8-8-8-8-8-|
G|---------------------------------|
D|---------------------------------|
A|---------------------------------|
E|---------------------------------|

e|-8-8-8-8/7-7-7-7/5-5-5-5-5/3-3-2-2-2-2-2h3-3-3-3-3--------|
B|----------------------------------------------------------|
G|----------------------------------------------------------|
D|----------------------------------------------------------|
A|----------------------------------------------------------|
E|----------------------------------------------------------|

e|---------------------------------|
B|-7h8-8-8-8-8-8-8-8-7h8-8-8-8-8-8-|
G|---------------------------------|
D|---------------------------------|
A|---------------------------------|
E|---------------------------------|

e|-8-8-8-8/7-7-7-7/5-5-5-5-5/3-3-2-2-2-2-2/3-3-3/5-5-5/7-7-8-7-5--|
B|----------------------------------------------------------------|
G|----------------------------------------------------------------|
D|----------------------------------------------------------------|
A|----------------------------------------------------------------|
E|----------------------------------------------------------------|


A
White horses dragged my lover from me
             Bb                                      A
(the clouds) rushed in and drowned my sorrow with the rain,
C           F         
with the rain, with the rain 

Am
Добавлено: 28.03.2012
Другие материалы по этой песне:

Страница создана 26.03.2012
http://primanota.ru/alkaline-trio/wash-away-chords.htm
Привет, Гость.
Предлагаем пройти революционный курс по гитаре.
Подарок от PrimaNota.Ru, забирай!