PrimaNota.ru - самый крупный в мире бесплатный архив песенных текстов, аккордов, табулатур и нот


Alkaline Trio - 97 - аккорды и текст, таба, бас-таба, видео

Регистрация Запомнить меня
Войти через:  Facebook Google Twitter Vk Yandex Mail.ru

Alkaline Trio - 97 - аккорды и текст, таба, бас-таба, видео

Печатать
Просмотров: 215
Уроки эстрадного вокала в Санкт-Петербурге
97
Alkaline Trio
		   Great closer to self-titled, although, you
haven't heard this song til you've heard
it live, that's when it's best...

enjoy,
jim

Intro:
-------------------------------|
-------------------------------|
--------------------9-----2----|
---7---6---6---4----9-----2/7--|
-0---0---0---0---0--7-----0----|
-------------------------------|

-------------------------------|
-------------------------------|
--------------9-9-9---9-9---2--|
-9-9-9-9-9-9--9-9-9---9-9---2--|
-x-x-x-x-x-x--6-6-6---7-7---0--|
-7-7-7-7-7-7-------------------|


Verse:
--------------------------------------------------------|
--------------------------------------------------------|
-9-9-9-9--9/11--9--7-6-7--0--6-6-6-6-6-6---4-4-4-4-4-4--|
-9-9-9-9--9/11--9--7-6-7--0--6-6-6-6-6-6---4-4-4-4-4-4--|
-7-7-7-7---------------------4-4-4-4-4-4---2-2-2-2-2-2--|
--------------------------------------------------------|


Chorus:
--------------------------------------------------------|
--------------------------------------------------------|
--------------------------------------------------------|
-7-7-7-7---9-9-9-9---4-4-4-4---6-6-6-6-6-6-7-7-7-7-7-7--|
-7-7-7-7---9-9-9-9---4-4-4-4---6-6-6-6-6-6-7-7-7-7-7-7--|
-5-5-5-5---7-7-7-7---2-2-2-2---4-4-4-4-4-4-5-5-5-5-5-5--|


Interlude:
---------------------------------------------|
---------------------------------------------|
-------------------4-2----4-4-4-4---6-6-6-6--|
---2---4-2---2---2-----2--4-4-4-4---6-6-6-6--|
-0---0-----0---0----------2-2-2-2---4-4-4-4--|
---------------------------------------------|

------------------------------------------------------|
------------------------------------------------------|
-------------------4-2----4--4---6--6---9--9---8--8\--|
---2---4-2---2---2-----2--4--4---6--6---9--9---8--8\--|
-0---0-----0---0----------2--2---4--4---7--7---6--6\--|
------------------------------------------------------|

------------------------------------------------|
------------------------------------------------|
-------------------4-2----4-4-4-4--2-2-2-4-2-0--|
---2---4-2---2---2-----2--4-4-4-4--4-4-4-4-4-2--|
-0---0-----0---0----------2-2-2-2--0-0-0-0-0-0--|
------------------------------------------------|

-----------------------------------------------------|
-----------------------------------------------------|
-------------------4-2-------------------------------|
---2---4-2---2---2-----2--4-4-4-4-4-4--6-6-6-6--7-7--|
-0---0-----0---0----------4-4-4-4-4-4--6-6-6-6--7-7--|
--------------------------2-2-2-2-2-2--4-4-4-4--5-5--|


Bridge opening: this also played randomly throughout bride (I don't
deserve this" part)
----------------|
----------------|
--9--------9-9--|
--9--------9-9--|
--7--------6/7--|
----------------|

Outro:
------------------------------------|
------------------------------------|
-9-9-9-9-9-9-9-9--6-6-6-6--4-4-4-4--|
-9-9-9-9-9-9-9-9--6-6-6-6--4-4-4-4--|
-7-7-7-7-6-6-7-7--4-4-4-4--2-2-2-2--|
------------------------------------|


Songflow:
Intro 3x
Verse 6x
Chorus
Verse 2x
Interlude
Verse 4x
Bridge opening
Outro 3x
Verse
End with bridge opening

Questions, comments, corrections: e-mail me at j_bro124@hotmail.com     
Добавлено: 22.08.2013
Другие материалы по этой песне:

Страница создана 14.06.2012
http://primanota.ru/alkaline-trio/97-chords.htm
Привет, Гость.
Предлагаем пройти революционный курс по гитаре.
Подарок от PrimaNota.Ru, забирай!