PrimaNota.ru - самый крупный в мире бесплатный архив песенных текстов, аккордов, табулатур и нот


Алиса - Мой Театр - аккорды и текст, видео

Регистрация Запомнить меня
Войти через:  Facebook Google Twitter Vk Yandex Mail.ru

Алиса - Мой Театр - аккорды и текст, видео

Печатать
Просмотров: 692
Мой Театр
Алиса
АчИСА - Мой театр
Tabbed by: Bryzgalin Constantin  (2:5005/58.97)
Куплеты играются примерно так:
C               Dm              G               C
|------------0-----------1-----1-----------3-------------0-----0-----|
|*------1-0-1---1-------3---3-----3-----3-3---3---3-----1---1-----1-*|
|----0-----------0---2-------2-------0---------0-----0-------0-------|
|------------------0-------------------------------------------------|
|*--3-----------------------------------------------3---------------*|
|---------------------------------3----------------------------------|
Затем между куплетами есть "перебздрык" типа:
F       G
|-------1-------3--| (т.е. просто надо большим пальцем по струнам прокатиться
|*-----1-------0--*|  будто зто не гитара, а арфа какая-нибудь)
|-----2-------0----|
|----3-------0-----|
|*--3-------2-----*|
|--1-------3-------| 2 раза
Мой театр - мой каприз,
Здесь нет кулис.
И мой зрительный зал -
Ёто я сам.
И в моей труппе сотни лиц,
И в каждом я узнаю себя.
При свете лунных брызг
Я играю жизнь.
Мой театр - мой каприз,
И кто вошел сюда - тот уже артист.
Здесь тысячи фигур
Ведут игру.
Здесь кто-то виноват, кто-то зол, кто-то рад,
Добавлено: 20.04.2012
Другие материалы по этой песне:
  • Аккорды и текст

Страница создана 20.04.2012
http://primanota.ru/alisa-2/moi-teatr-chords.htm
Привет, Гость.
Предлагаем пройти революционный курс по гитаре.
Подарок от PrimaNota.Ru, забирай!