PrimaNota.ru - самый крупный в мире бесплатный архив песенных текстов, аккордов, табулатур и нот


Alice In Chains - Rotten Aple - бас-таба, видео

Регистрация Запомнить меня
Войти через:  Facebook Google Twitter Vk Yandex Mail.ru

Alice In Chains - Rotten Aple - бас-таба, видео

Печатать
Просмотров: 104
		   --|------9----11/12---------------|------9-----11/12-------------|--
--|---9-----9-------12---(12)\----|---9-----9---------12---------|--
--|7------------------------------|7-----------------------------|--
--|-------------------------------|------------------------------|--

--|---------14\12--12\------------|------------------------------|--
--|12/14--(14)\12--12\------------|------------------------------|--
--|-------------------------------|------------------------------|--
--|-------------------------------|------------------------------|--

   Coda II

--|-------------------------------|------------------------------|--
--|-------------------------------|------------------------------|--
--|-------------------------------|------------------------------|--
--|-------------------------------|------------------------------|--

--|-------------------------------|------4-----2-----------------|--
--|10-10--10-10--10\9--7--5-5-5---|0-2-2---2-0-0-----------------|--
--|-------------------------------|------------------------------|--
--|-------------------------------|------------------------------|--

                                   Outro
                                     Hey ah na na...
--|--------4------2--4-0-------0h2|---------4--------2-----------|--
--|0h2--2-----2p0-0------0-2h4----|0--2--2-----2--0--0-----------|--
--|-------------------------------|------------------------------|--
--|-------------------------------|------------------------------|--
                                   (Play 12 times simile and fade)
--|--------4-------2--------------|4--0----------0h2-------------|--
--|0h2--2-----2p0--0--------------|------0--2h4------------------|--
--|-------------------------------|------------------------------|--
--|-------------------------------|------------------------------|--

                            ---THE END---

Does anyone out there have any FULL Pantera guitar tabs for Walk,
A New Level, Mouth for War or This Love?
Could ya please send them to the above E-mail address?
Thanx & Enjoy the tab!!!


| FidoNet:  Slaine 5:7102/129
| Internet: Slaine@chameleon.alt.za
|
| Standard disclaimer: The views of this user are strictly his own.
| From Chameleon BBS   +27-21-462-4580 or +27-21-461-0140

     
Добавлено: 30.11.2013
Другие материалы по этой песне:
  • Аккорды и текст

Страница создана 30.11.2013
http://primanota.ru/alice-in-chains/rotten-aple-chords.htm
Привет, Гость.
Предлагаем пройти революционный курс по гитаре.
Подарок от PrimaNota.Ru, забирай!