PrimaNota.ru - самый крупный в мире бесплатный архив песенных текстов, аккордов, табулатур и нот


Alice In Chains - Low Ceiling - таба, видео

Регистрация Запомнить меня
Войти через:  Facebook Google Twitter Vk Yandex Mail.ru

Alice In Chains - Low Ceiling - таба, видео

Печатать
Просмотров: 170
Авторы: Sean Kinney, Mike Inez, Jerry Cantrell

Intro(Acoustic Guitar):

|---0-----------------------|
|---0-----------------------|
|---1-----------------------|
|---2----2------------------|
|---2-----2-3---------------| 
|---0----------0-2-3-3/5----|

F#5                    G5               A5
Aaahhhhhhhhhhhhh Ahhhh ahhhhh ahh ahhhh ahhhhh ahhhhhhh

Verse 1:
E5     B5  G5       A5
Old mister fun is back
E5          B5         G5     A5
Wonder where he's been hiding at
E5            B5
Hanging round the edge
G5               A5    B5    C5 D5
Walls unfortified, inside

E5       B5   G5           A5
No different, patchwork hack
E5        B5      G5      A5
Toil away on an unlaid track
E5      B5        G5               A5
Falls closing in, got nowhere to hide
     B5
This time


Chorus:
C5     G5        A5
Finding ceilings low
C5      G5                 A5
I'm too big or this room's too small
C5    G5      A5           B5
Why's my ceiling another's floor


Verse 2:
E5       B5        G5     A5
Past twisted, expected wrap
E5           B5        G5       A5
Attention span increasingly short
E5               B5       G5                A5
Hard to breathe, this altitude will get you high
     B5
I've tried


Chorus:
C5     G5        A5
Finding ceilings low
C5      G5                 A5
I'm too big or this room's too small
C5    G5      A5           B5
Why's my ceiling another's floor


Third Part:
C5 B5    A5   G5      F#5
   And nobody can tell you
   C5 B5     A5     G5 B5          
   It's a moment in time        
C5 B5     A5      G5     F#5
   That defines and deforms you

Riff Intro:

|---------------------0-0----0-0--0----------------------|
|---------------------0-0----0-0--0----------------------|
|---------------------1-1----1-1--1----------------------|
|---2~~-2-------------2-2-2--2-2--2----2-----------------|
|---2~~--2-3----------2-2-2--2-2--2-----2-3--------------|
|---0~~------0-2-3-0--0-0-0--0-0--0---------0-2-3-3/5----|

F#5                    G5               A5
Aaahhhhhhhhhhhhh Ahhhh ahhhhh ahh ahhhh ahhhhh ahhhhhhh


Solo: Rhythm Guitar:(B A G E)4x

        B           A          G           E
|-----------|-----------|-----------|-----------12--------|
|-----------|-----------|-----------|-------9-10--10-9----|
|---4b4-2-4-|---7b7-6-7-|---9b9-7-9-|---9-11--------------|
|-----------|-----------|-----------|---------------------|
|-----------|-----------|-----------|---------------------|
|-----------|-----------|-----------|---------------------|



        B                   A                 G          E
|------------------|------------------|-----------|-----------12-----------|
|------------------|------------------|-----------|-------9-10--10-9/12-12-|
|---4b4-2-4----2-4-|---7b7-6-7-6h7p6--|---9b9-7-9-|---9-11-----------------|
|-----------2-4----|----------------7-|-----------|------------------------|
|------------------|------------------|-----------|------------------------|
|------------------|------------------|-----------|------------------------|


        B                   A                  G
|---17b17--17--17---|---17b17--17--17---|---17b17--17--17---|
|--------14--14--15-|--------15--15--14-|--------14--14--15-|
|-------------------|-------------------|-------------------|
|-------------------|-------------------|-------------------|
|-------------------|-------------------|-------------------|
|-------------------|-------------------|-------------------|


       E
|--------------------------------|
|---14h15p14--14-----------------|
|-----------16--16-14/13h14p13---|
|-----------------------------14-|
|--------------------------------|
|--------------------------------|

        B                   A                  G
|---17b17--17--17---|---17b17--17--17---|---17b17--17--17---|
|--------14--14--15-|--------15--15--14-|--------14--14--15-|
|-------------------|-------------------|-------------------|
|-------------------|-------------------|-------------------|
|-------------------|-------------------|-------------------|
|-------------------|-------------------|-------------------|

         E
|------------------------------------|
|---14h15p14--14--------------17~~---|
|-----------16--16-14/13h14p13-------|
|------------------------------------|
|------------------------------------|
|------------------------------------|

Chorus:
C5     G5        A5
Finding ceilings low
C5      G5                 A5
I'm too big or this room's too small

   C5    G5      A5           B5
Why's my ceiling another's floor


Third Part:
   C5 B5    A5   G5      F#5
   And nobody can tell you  
C5 B5     A5     G5 B5  A   G     E
   It's a moment in time

B    A    G    E


B              A
Write me over, false reporter
G                E
Can't you let me shine
B              A
Write me over, false reporter
G                E
Can't you let me shine


Third Part:
C5 B5    A5   G5      F#5
   And nobody can tell you
  C5 B5     A5     G5 B5
   It's a moment in time
  C5 B5     A5      G5     F#5
   That defines and deforms you
Добавлено: 08.09.2013
Другие материалы по этой песне:

Страница создана 08.09.2013
http://primanota.ru/alice-in-chains/low-ceiling-chords.htm
Привет, Гость.
Предлагаем пройти революционный курс по гитаре.
Подарок от PrimaNota.Ru, забирай!