PrimaNota.ru - самый крупный в мире бесплатный архив песенных текстов, аккордов, табулатур и нот


Alice In Chains - I Can - аккорды и текст, видео

Регистрация Запомнить меня
Войти через:  Facebook Google Twitter Vk Yandex Mail.ru

Alice In Chains - I Can - аккорды и текст, видео

Печатать
Просмотров: 108
I Can
Alice In Chains
"I Can't Remember"       (riff 1)
[Eb-------0----0----0----0----0------0----0----0----0----0----------
Bb-----0----0--0----0----0----0---0----0--0----0----0----0--------
Gb---4----3-----3----3----3------4----2-----0----2----2-------------
Db------------------------------------------------------------------(2)--
Ab------------------------------------------------------------------(2)---
Eb------------------------------------------------------------------(0)---]
                    (riff 2)
[Eb-------------------------------------------------------------------------
Bb-------------------------------------------------------------------------
Gb-------------------------------------------------------------------------
Db-----------------5^----------------------------7^----5-----------------
Ab---5---7-------------7-----------5---7--------------------------------
Eb------------0------------0---0------------0---------------0---0-------

Eb-------------------------------------------------------------------------
Bb-------------------------------------------------------------------------
Gb------------------------------------------------------------2-----------
Db--------------5^---------------------------8---7----------2-----------
Ab---5---7---------7-----------5---7-------8---7----------0------------
Eb-----------0--------0---0-----------0----6---5----3^-----------------]
                      (riff 3)
[Eb--------------------------------------------------------------------------
Bb---------------------------------------------------------------------------
Gb----------------------------0------------------------------------0-------
Db---------2--------0-----0--------------------2--------0-----0----------
Ab------2----2---2---2----------------------2----2---2---2---------------
Eb---0---------3--------5------6--5-3^--0---------3-------5-----6--5^-]
"Man in the Box"         (riff 1)
[Eb---------------------------------------------------------------------------
Bb---------------------------------------------------------------------------
Gb---------------------------------------------------------------------------
Db-----------------------------------------------------------5^-------------
Ab---5---5-5---5---5-5---5---5-5---5---5------5---7------------------
Eb---0---0-0---0---0-0---0---0-0---0---0------------------------------

Eb---------------------------------------------------------------------3---2--------
Bb---------------------------------------------------------------------3---3---2----
Gb---------------------------------------------------------------------0---2---2----
Db----------------------------------------------------------------2---0---0---2-----
Ab---5---5-5---5---5-5---5---5-5----7---5-------------------2---2---0---0-----
Eb---0---0-0---0---0-0---0---0-0------------7--6--5--3^---0---3----------0--3^]
etc...Hey, if anyone has any particular song off of Facelift, post a
message or E-mail me...I'll finish up "Man in the Box", along with the
requests, tomorrow or Sat. afternoon.
Добавлено: 25.01.2014
Другие материалы по этой песне:
  • Аккорды и текст

Страница создана 25.01.2014
http://primanota.ru/alice-in-chains/i-can-chords.htm
Привет, Гость.
Предлагаем пройти революционный курс по гитаре.
Подарок от PrimaNota.Ru, забирай!