PrimaNota.ru - самый крупный в мире бесплатный архив песенных текстов, аккордов, табулатур и нот


Alice In Chains - Angry chair acoustic version - таба, видео

Регистрация Запомнить меня
Войти через:  Facebook Google Twitter Vk Yandex Mail.ru

Alice In Chains - Angry chair acoustic version - таба, видео

Печатать
Просмотров: 182


Transcribed by: 713
Subject: ANGRY CHAIR by Alice In Chains


Angry Chair
(words amp; music by Layne Staley)

This is an updated version from someone elses version that was on here.
It didn't seem right and I believe that I have corrected a good amount of it.
If anyone knows the solo, it would be great if you posted it here.

b    = bend
// = vibrato

Tune down Ѕ step

1st riff

Eb -----------------
Bb -----------------
Gb -----------------
Db -----------------
Ab ------2-----3b---
Eb --0-----0--------

2nd riff

Eb ------------------------
Bb ------------------------
Gb ------------------------
Db --3-3-3-3-2--2----------
Ab --3-3-3-3-2--2----------
Eb --1-1-1-1-0--0--5b//--


3rd riff

Eb ----------------------------------------------------------
Bb ----------------------------------------------------------
Gb ----------------------------------------------------------
Db --7--7--9--9-9--4-4-4--5--5-5--7-7-7--9--9-9--2-----------
Ab --7--7--9--9-9--4-4-4--5--5-5--7-7-7--9--9-9--2-----------
Eb --5--5--7--7-7--2-2-2--3--3-3--5-5-5--7--7-7--0---5b5b5b--

Добавлено: 15.09.2013
Другие материалы по этой песне:
  • Аккорды и текст

Страница создана 15.09.2013
http://primanota.ru/alice-in-chains/angry-chair-acoustic-version-chords.htm
Привет, Гость.
Предлагаем пройти революционный курс по гитаре.
Подарок от PrimaNota.Ru, забирай!