PrimaNota.ru - самый крупный в мире бесплатный архив песенных текстов, аккордов, табулатур и нот


Alice In Chains - Blood Tears Little Girl - таба, видео

Регистрация Запомнить меня
Войти через:  Facebook Google Twitter Vk Yandex Mail.ru

Alice In Chains - Blood Tears Little Girl - таба, видео

Печатать
Просмотров: 148
Blood Tears Little Girl (Acoustic)
Alice in Chains

Tabbed by rockingaway

K so I'm not sure of the lyrics, but the tab as well as the lyrics are mostly correct.
tab might not be accurate to the song note for note, but it fits with the song. This is a
song that I happened to stumble upon. Tried to find tabs as well as lyrics but couldn't. 
the point I'm wondering if I got the song title and/or artist name correct. If I made
mistake, do inform me! Thanks! This song is so great that I just had to tab it out! Enjoy!

Note: lyrics for that riff are put below the riff itself.

Intro:

|----------------|
|------8/10-5\3-1|
|------7/9--4----|
|----------------|
|----------------|
|----------------|

Verse:

|----------------|-------------------|----------------|-------------------|
|----1-1-----1-1-|----1-1—0h1p0---0-1|----1-1-----1-1-|----1-1—1h3-1-1h3-1|
|--2-2-2---0-0-0-|--0-0-0-------2----|--2-2-2---0-0-0-|--0-0-0------------|
|3-------2-------|0------------------|3-------2-------|0------------------|
|----------------|-------------------|----------------|-------------------|
|----------------|-------------------|----------------|-------------------|


|----------------|-------------------|----------------|-------------------|
|----1-1-----1-1-|----1-1—0h1p0---0-1|----1-1-----1-1-|----1-1—1h3-1-1h3-1|
|--2-2-2---0-0-0-|--0-0-0-------2----|--2-2-2---0-0-0-|--0-0-0------------|
|3-------2-------|0------------------|3-------2-------|0------------------|
|----------------|-------------------|----------------|-------------------|
|----------------|-------------------|----------------|-------------------|

Little girl, where did you go?
Playing in the fields when the sun goes

|----------------|-------------------|----------------|-------------------|
|----1-1-----1-1-|----1-1—0h1p0---0-1|----1-1-----1-1-|----1-1—1h3-1-1h3-1|
|--2-2-2---0-0-0-|--0-0-0-------2----|--2-2-2---0-0-0-|--0-0-0------------|
|3-------2-------|0------------------|3-------2-------|0------------------|
|----------------|-------------------|----------------|-------------------|
|----------------|-------------------|----------------|-------------------|

Before the moon had changed at night
You had fallen out of sight

|----------------|----------------|----------------|----------------|
|------1-------1-|------1—--------|------1-------1-|------1—--------|
|----0-------0---|----2-------2-3-|----0-------0---|----2-------2-3-|
|--2-------0-----|--3-------3-----|--2-------0-----|--3-------3-----|
|3-------2-------|1-------1-------|3-------2-------|1-------1-------|
|----------------|----------------|----------------|----------------|

Little girl, why did you go away?
I was missing you, I knew when I strayed

|----------------|----------------|----------------|------1---------|
|------1-------1-|------1—--------|------1-------1-|-------—--------|
|----0-------0---|----2-------2-3-|----0-------0---|----2---2-------|
|--2-------0-----|--3-------3-----|--2-------0-----|--3-------------|
|3-------2-------|1-------1-------|3-------2-------|1---------------|
|----------------|----------------|----------------|----------------|

Didn't mean to lie, didn't mean to cry
I just wanted to say goodbye

|----------------|-------------------|----------------|-------------------|
|----1-1-----1-1-|----1-1—0h1p0---0-1|----1-1-----1-1-|----1-1—1h3-1-1h3-1|
|--2-2-2---0-0-0-|--0-0-0-------2----|--2-2-2---0-0-0-|--0-0-0------------|
|3-------2-------|0------------------|3-------2-------|0------------------|
|----------------|-------------------|----------------|-------------------|
|----------------|-------------------|----------------|-------------------|


|----------------|-------------------|----------------|-------------------|
|----1-1-----1-1-|----1-1—0h1p0---0-1|----1-1-----1-1-|----1-1—1h3-1-1h3-1|
|--2-2-2---0-0-0-|--0-0-0-------2----|--2-2-2---0-0-0-|--0-0-0------------|
|3-------2-------|0------------------|3-------2-------|0------------------|
|----------------|-------------------|----------------|-------------------|
|----------------|-------------------|----------------|-------------------|

Little girl went to the city now
Got lost in this place up high

|----------------|-------------------|----------------|-------------------|
|----1-1-----1-1-|----1-1—0h1p0---0-1|----1-1-----1-1-|----1-1—-----------|
|--2-2-2---0-0-0-|--0-0-0-------2----|--2-2-2---0-0-0-|--0-0-0-2-0--------|
|3-------2-------|0------------------|3-------2-------|0-----------3-2-0--|
|----------------|-------------------|----------------|-------------------|
|----------------|-------------------|----------------|-------------------|

All the things you learned were almost real
(...) strength to heal

|----------------|----------------|----------------|----------------|
|------1-------1-|------1—--------|------1-------1-|------1—--------|
|----0-------0---|----2-------2-3-|----0-------0---|----2-------2-3-|
|--2-------0-----|--3-------3-----|--2-------0-----|--3-------3-----|
|3-------2-------|1-------1-------|3-------2-------|1-------1-------|
|----------------|----------------|----------------|----------------|

Little girl, why did you go away?
I was missing you, I knew when I strayed

|----------------|----------------|----------------|----------------|
|------1-------1-|------1—--------|------1-------1-|-------—--------|
|----0-------0---|----2-------2-3-|----0-------0---|----------------|
|--2-------0-----|--3-------3-----|--2-------0-----|----------------|
|3-------2-------|1-------1-------|3-------2-------|1-1-1-1-1-1-1-1-|
|----------------|----------------|----------------|----------------|
Didn't mean to lie, didn't mean to cry
I just wanted to say goodbye

Solo:

 C       G        Am      G            C          G
|0-----3---------|--------------------|3/5-5--0-0-3--5-0-0-0-3-0---|
|1--/5---3---3/1-|-------—------------|3/5-----------------------3-|
|0-------0---0---|2--2b3-0--2b3-0-2-0-|----------------------------|
|2---------------|--------------------|----------------------------|
|3---------------|--------------------|----------------------------|
|----------------|--------------------|----------------------------|

 Am      G        C        G          Am      G
|----------------|8---8--5--3-3----3-|0---0--3-0------|
|1----1-3--1h3---|8---8--5--3-3-3h5--|1-----------3-3-|
|----0-----------|-------------------|----------------|
|----------------|-------------------|----------------|
|----------------|-------------------|----------------|
|----------------|-------------------|----------------|

 C       G                           Am      G
|8----8-10b11-10b11-10b11—10br11----|8----8----------|
|8--10--—------------------------10-|---10--—10--8-8-|
|-------—---------------------------|----------------|
|-------—---------------------------|----------------|
|-------—---------------------------|----------------|
|-------—---------------------------|----------------|

 C                    G               Am                   G
|12-10-------------------------------|12-10----------------------------10-|
|-----13-12-13-12-10--10-12-13-12-13-|-----13-12-13-12-10--10-12-13-12----|
|-------------------12---------------|-------------------12---------------|
|------------------------------------|------------------------------------|
|------------------------------------|------------------------------------|
|------------------------------------|------------------------------------|

C                    G               Am                   G
|12-10-------------------------------|12-10----------------------------16\|
|-----13-12-13-12-10--10-12-13-12-13-|-----13-12-13-12-10--10-12-13-12----|
|-------------------12---------------|-------------------12---------------|
|------------------------------------|------------------------------------|
|------------------------------------|------------------------------------|
|------------------------------------|------------------------------------|


The chords that are strummed after that are:

C G Am G

C G A

C(032013)        Dsus4
Walking down the street.. Walking

C(032013)        Dsus4
Walking down the street.. Walking

C(032013)        Dsus4
Walking down the street.. Walking

C(032013)                 Dsus4
Walking down the street.. My little girl..

Verse:

|----------------|-------------------|----------------|-------------------|
|----1-1-----1-1-|----1-1—0h1p0---0-1|----1-1-----1-1-|----1-1—1h3-1-1h3-1|
|--2-2-2---0-0-0-|--0-0-0-------2----|--2-2-2---0-0-0-|--0-0-0------------|
|3-------2-------|0------------------|3-------2-------|0------------------|
|----------------|-------------------|----------------|-------------------|
|----------------|-------------------|----------------|-------------------|

|----------------|-------------------|----------------|-------------------|
|----1-1-----1-1-|----1-1—0h1p0---0-1|----1-1-----1-1-|----1-1—1h3-1-1h3-1|
|--2-2-2---0-0-0-|--0-0-0-------2----|--2-2-2---0-0-0-|--0-0-0------------|
|3-------2-------|0------------------|3-------2-------|0------------------|
|----------------|-------------------|----------------|-------------------|
|----------------|-------------------|----------------|-------------------|

Little girl gliding in the sky
came back down to say goodbye

|----------------|-------------------|----------------|-------------------|
|----1-1-----1-1-|----1-1—0h1p0---0-1|----1-1-----1-1-|----1-1—1h3-1-1h3-1|
|--2-2-2---0-0-0-|--0-0-0-------2----|--2-2-2---0-0-0-|--0-0-0------------|
|3-------2-------|0------------------|3-------2-------|0------------------|
|----------------|-------------------|----------------|-------------------|
|----------------|-------------------|----------------|-------------------|

I regret having scared you away
All my fault but nothing to say

|----------------|----------------|----------------|----------------|
|------1-------1-|------1—--------|------1-------1-|------1—--------|
|----0-------0---|----2-------2-3-|----0-------0---|----2-------2-3-|
|--2-------0-----|--3-------3-----|--2-------0-----|--3-------3-----|
|3-------2-------|1-------1-------|3-------2-------|1-------1-------|
|----------------|----------------|----------------|----------------|

Little girl, why did you go away?
I was missing you, I knew when I strayed

|----------------|----------------|----------------|----------------|
|------1-------1-|------1—--------|------1-------1-|-------—--------|
|----0-------0---|----2-------2-3-|----0-------0---|----------------|
|--2-------0-----|--3-------3-----|--2-------0-----|----------------|
|3-------2-------|1-------1-------|3-------2-------|1-1-1-1-1-1-1-1-|
|----------------|----------------|----------------|----------------|

Didn't mean to lie, didn't mean to cry
I just wanted to say goodbye


The chords that are strummed after that are:

C G Am G

C G Am G

C G Am G

C G A


C(032013)        Dsus4
Walking down the street.. Walking

C(032013)        Dsus4
Walking down the street.. Walking

C(032013)        Dsus4
Walking down the street.. Walking

C(032013)                 Dsus4         G
Walking down the street.. My little girl..

  Cadd9 Dsus4             G
I had a girl.. Little girl

    Cadd9    Dsus4                   G
She loved me more than I used to know

  Cadd9      Dsus4
I loved that girl

                                 G      Cadd9    Dsus 4
I thought I would be with her forever

                       G      Cadd9     Dsus4
I loved her more than (...)

       G    Cadd9    Dsus4
Little girl..

       G
Little girl..


Heh took some time but was worth it! PM me if you've got comments/corrections!
Добавлено: 30.08.2013
Другие материалы по этой песне:
  • Аккорды и текст

Страница создана 30.08.2013
http://primanota.ru/alice-in-chains/blood-tears-little-girl-chords.htm
Привет, Гость.
Предлагаем пройти революционный курс по гитаре.
Подарок от PrimaNota.Ru, забирай!