PrimaNota.ru - самый крупный в мире бесплатный архив песенных текстов, аккордов, табулатур и нот


Alice Cooper - Youre A Movie - текст песни, таба, бас-таба, видео

Регистрация Запомнить меня
Войти через:  Facebook Google Twitter Vk Yandex Mail.ru

Alice Cooper - Youre A Movie - текст песни, таба, бас-таба, видео

Печатать
Просмотров: 207
Band: Alice Cooper
Song: You're A Movie
Album: Special Forces
Year: 1981
Tabbed by DoteStudios
Email is undermywheels71@gmail.com

NOTE: A lot of what you hear in the background of this song or on most songs of this 
is actually a synthesizer, not a guitar.

Keys
b = bend
r = release
\ = slide up neck
/ = slide down neck
h = hammer-on
p = pull-off
~ = hold note
w = whammy bar
v = vibrato
< > = strike the notes in between the symbols while in the bend
D = strum down
U = strum up
. = palm muted note

Intro
E-------------------------------------------------|-----------|-------|
B-------------------------------------------------|-----------|-------|
G-.--.--------------------.--.--------------------|-----------|-------|
D-0--2--------------------5--2--------------------|-repeat 3x-|-------|
A-------.--.--.--.--.--.--------.--.--.--.--.--.--|-----------|-0-----|
E-------0--0--0--0--0--0--------0--0--0--0--0--0--|-----------|----3--|

Riff 1
E-----------------------------------------------------------------|
B-----------------------------------------------------------------|
G-----------------------------------------------------------------|
D------------------------2--4p2--4--2~~~--------------------------|
A------------------------0--0----0--0~~~--------------------------|
E-0--1--2--3---3--4--5---------------------0--1--2--3---3--4--5---|

E-----------------|
B-----------------|
G----------2~~~---|
D-2--4p2---2~~~---|
A-0--0-----0~~~---|
E-----------------|

Riff 2
Synthesizer
E-----------------------------|
B-5---5---5--5----------------|
G----------------2h4p2~~~2~~~-|
D-----------------------------|
A-----------------------------|
E-----------------------------|

E--------------------|
B--------------------|
G--------------------|
D--------------------|
A--------------------|
E-0--1--2--3---3--4--|

Intro
Riff 1 (2x)

Riff 1 (4x)
I fearlessly walk into battle
With a shine on my boots and my teeth
Never flinch, never blink, never rattle
My blood is like ice underneath
Oh, I'm the reincarnation of Patton
And I've got Hannibal's heart in my chest
God told me I would have rivalled
Alexander the Great at his best

(You're a movie)
Quite
(You're a movie)
Yes
(The exception)
That's right
(You're the final kind)
(You're a movie)
More of an epic
(Please include me, send us to the line)

Riff 1
Mm, that's right
Very good

Riff 1 (4x)
Bullets repel off my medals
And my men are in awe when I speak
All chaos my strategy settles
My mere presence gives strength to the weak
For me it seems really alarming
I'm really just only a man
With five million sheep in this army
I seem to be the only one fit to command

(You're a movie)
I'm quite aware
(You're a movie)
Yeah
(The exception)
Oh, you've noticed
(You're the final kind)
(You're a movie)
Hey, very true
(Please include me, send us to the line)

Riff 2 (4x)
Mm, if you're lucky
I must go now and save the world
Move aside mere drop of water, let the ocean pass

(You're a movie)
Quite right
(You're a movie)
(The exception)
(You're the final kind)
(You're a movie)
(Please include me)
Mm hmm
(Please include me)
(Please include me)
Possibly
(Send us to the lines)
Good man
(Send us to the lines)
I'll be at the front, please
(Front of the lines)
Oh, alright

Riff 1 (4x)
Follow me
Another day, another victory
Another gold stripe, another star
Really quite boring sometimes
I wish they'd send someone equal to my strategies

Riff 3

What a guy
I'm really quite a guy

Riff 1 (5x)
(Movie ...)
Добавлено: 06.05.2012
Другие материалы по этой песне:
  • Аккорды и текст

Страница создана 24.04.2012
http://primanota.ru/alice-cooper/youre-a-movie-chords.htm
Привет, Гость.
Предлагаем пройти революционный курс по гитаре.
Подарок от PrimaNota.Ru, забирай!