PrimaNota.ru - самый крупный в мире бесплатный архив песенных текстов, аккордов, табулатур и нот


Alice Cooper - (No More) Love At Your Convenience - текст песни, таба, видео

Регистрация Запомнить меня
Войти через:  Facebook Google Twitter Vk Yandex Mail.ru

Alice Cooper - (No More) Love At Your Convenience - текст песни, таба, видео

Печатать
Просмотров: 174


Song Title: (No More) Love At Your Convenience
Album: Lace And Whiskey
Artist: Alice Cooper
Words and Music by Alice Cooper, Dick Wagner and Bob Ezrin
Tabbed by: Rory MacKenzie

Capo 3rd Fret
Intro:                                                                      2x
||:-------2-2-2---4---|0------------|0--0--0--0---2----0---  ----------------:||
||:-------3-3-3---5---|2------------|2--2--2--2---3----0---  ----------------:||
||:-------2-2-2---4---|2------------|2--2--2--2---4----1--- 2----------------:||
||:-------------------|-------------|---------------------- /----------------:||
||:0------------------|---0---------|---------------------- 4--------0-------:||
||:-------------------|------0------|----------------------  0---2-------2---:||

  (Needed you)

||:2-----2-2--5---|5---5-5----4-|4-----------|2------2-2----5--|5--5--2-----2--|
||:3-----3-3--5---|7---7-5----5-|5-----------|3------3-3----5--|7--7--2-----2--|
||:4-----4-4--6---|7---7-6----4-|4-----------|4------4-4----6--|7--7--2-----2--|
||:---------------|-------------|------------|-----------------|---------------|
||:---------------|-------------|------------|-----------------|---------------|
||:---------------|-------------|------0-0---|-----------------|---------------|
 1. your childish  game is o ver now          lost your pow  er o ver night some
 2. I'm  telling   you tonights the night          Close your  mouth turn off the
 3.      Quit your tears and dry your eyes         You know I hate to see you

2------|3---3-3-------3-|3---3---3---3---3---3-|0----0-0-----|0--------------|
2------|3---3-3-------3-|3---3---3---3---3---3-|0----0-0-----|0--------------|
2------|4---4-4-------4-|4---4---4---4---4---4-|2----2-2-----|1--------------|
-------|----------------|----------------------|0------------|0--------------|
-------|----------------|----------------------|2------------|2--------------|
-------|----------------|----------------------|0------------|0--0-0-0-0-0-0-|
how     better see   it  ain't gonna be like it used to be
light   Pull me babe     pull me down closer on you
cry     Don't you see    things gotta be what they gotta be         (To Chorus 2)

Chorus:                                                 1,2___________________
 ||:2------0----   2--2----0------0--|3-----2--2--------|3--3------2--------:||
 ||:3------2----   3--3----2------2--|3-----3--3--------|3--3------3--------:||
3||:2------2---- 4 2--2----2------2--|4-----2--2--------|4--4------2--------:||
/||:0------2---- / 0--0----2------2--|0-----0--0--------|0--0------0--------:||
4||:0------0---- 4 --------0------0--|------------------|-------------------:||
 ||:------------   ------------------|------------------|-------------------:||
    No     More    love at your   con ven    ience
    No     More    love at your   com mand
    No     More    love at your   con ven    ience
3.___________________________________________
4-------------2------------|2----------------|
5-------------2------------|3----------------|1x repeat intro then verse 2.
4-------------2------------|2----------------|2x Break
6-------------4------------|4----------------|
4-------------4------------|2----------------|
--------------2------------|-----------------|
Lots of times late at night          I really

Break:                                                        1,2______________
||:4----5--5--------|4--5----5------4-----|4------2--2--------|--------------:||
||:5----5--5--------|5--5----5------5-----|5------3--3--------|--------------:||
||:4----6--6--------|4--6----6------4-----|4------2--2--------|--------------:||
||:0----------------|---------------------|-------------------|--------------:||
||:0----------------|---------------------|-------------------|--------------:||
||:-----------------|---------------------|-------------------|--------------:||
   Needed you                                                      I real ly
3.____________________________________________________
4--------2--------|2----------------|0---------------|
5--------2--------|3----------------|0---------------|
4--------2--------|2----------------|2---------------|
6--------4--------|4----------------|0---------------|
4--------4--------|2----------------|2---------------|
---------2--------|-----------------|0-0-0-0-0-0-0-0-|

Chorus 2:                                               1,2,3________________
 ||:2------0----   2--2----0------0--|3-----2--2--------|3--3------2--------:||
 ||:3------2----   3--3----2------2--|3-----3--3--------|3--3------3--------:||
3||:2------2---- 4 2--2----2------2--|4-----2--2--------|4--4------2--------:||
/||:0------2---- / 0--0----2------2--|0-----0--0--------|0--0------0--------:||
4||:0------0---- 4 --------0------0--|------------------|-------------------:||
 ||:------------   ------------------|------------------|-------------------:||
    No     More    love at your   con ven    ience
    No     More    love at your   com mand
    No     More    love at your   con ven    ience

[Then to Verse 3 and Chorus 2 repeat and fade]


Добавлено: 06.02.2014
Другие материалы по этой песне:
  • Аккорды и текст

Страница создана 26.03.2012
http://primanota.ru/alice-cooper/no-more-love-at-your-convenience-chords.htm
Привет, Гость.
Предлагаем пройти революционный курс по гитаре.
Подарок от PrimaNota.Ru, забирай!