PrimaNota.ru - самый крупный в мире бесплатный архив песенных текстов, аккордов, табулатур и нот


Alice Cooper - Wrapped In Silk - таба, видео

Регистрация Запомнить меня
Войти через:  Facebook Google Twitter Vk Yandex Mail.ru

Alice Cooper - Wrapped In Silk - таба, видео

Печатать
Просмотров: 189
Уроки эстрадного вокала в Санкт-Петербурге
Band: Alice Cooper
Song: Wrapped In Silk
Album: Along Came A Spider
Year: 2008
Tabbed by DoteStudios
Email is manbearpigisreal@gmail.com

Keys
b = bend
r = release
\ = slide up neck 
/ = slide down neck
h = hammer-on
p = pull-off
~ = hold note
w = whammy bar
v = vibrato

E-----------------------------------------------------|
B-----------------------------------------------------|
G-----------------------------------------------------| 2x
D-2--2--2----------------2--2--2--2-------------------|
A-0--0--0--5b6r5-0-3b4p0-0--0--0--0--5b6r5-0-3b4vvvv--|
E-----------------------------------------------------|

“Where did I see those eyes
Why do I feel your heat
How do I know your name
When did we ever meet
Did you just pass me by
When did I smell your scent
I followed you from behind”
E-----------------------------------------------------|
B-----------------------------------------------------|
G-----------------------------------------------------| 4x
D-2--2--2----------------2--2--2--2-------------------|
A-0--0--0--5b6r5-0-3b4p0-0--0--0--0--5b6r5-0-3b4vvvv--|
E-----------------------------------------------------|
On the fourth time don't play the second riff (pause then play the one below)

“Everywhere you went”

E------------|
B-7b8r7-5-7--|
G-7b8r7-5-7--|
D------------|
A------------|
E------------|

“My, my, my, my, my”
E-----------------------------12-------12-------12-------|
B-----------------------15b17----15b17----15b17----15b17-|
G--------------------------------------------------------|
D-----------------2--------------------------------------|
A-6---5---3---3---0--------------------------------------|
E--------------------------------------------------------|

“You should be wrapped in silk
You should be bathed in white
You should be wrapped in silk
I'll make that dream come true tonight”
E---------------------------------------------------|
B---------------------------------------------------|
G---------------------------------------------------|
D-9--7--5---5--4--2---9--7--5---5-5-------7-7--5-5--|
A-7--5--3---3--2--0---7--5--3---3-3--5-5--5-5--3-3--|
E------------------------------------3-3------------|

“Yes tonight
Yes tonight
Yes tonight
Tonight's the night”
E-----------------------------------------|
B-----------------------------------------|
G-----------------------------------------|
D-5--4--2---5--4--2---5--4--2---5-----7~~-|
A-3--2--0---3--2--0---3--2--0---3--5--5~~-|
E----------------------------------3------|

“How did you see my face
When could you feel the knife
E---------------------------|
B---------------------------|
G---------------------------| 2x
D-2--2--2----------------2--|
A-0--0--0--5b6r5-0-3b4p0-0--|
E---------------------------|

Was it your final thought
The moment I took your life
And just when your heartbeat failed
Were you just filled with fright
Were you in dark despair”
E-----------------------------------------------------|
B-----------------------------------------------------|
G-----------------------------------------------------| 2x
D-2--2--2----------------2--2--2--2-------------------|
A-0--0--0--5b6r5-0-3b4p0-0--0--0--0--5b6r5-0-3b4vvvv--|
E-----------------------------------------------------|

“Did you see the holy light?”
E-----------------------|
B-----------------------|
G-----------------------|
D-----------------------|
A-10--7-10--7-10--7-10--|
E-----------------------|

“My, my, my, my, my”
E-----------------------------------|
B-----------------------------------|
G-----------------------2-2-2-2--2/-|
D-----------------2-----2-2-2-2--2/-|
A-6---5---3---3---0-----0-0-0-0--0/-|
E-----------------------------------|

“You should be wrapped in silk
You should be bathed in white
You should be wrapped in silk
I'll make that dream come true tonight
Wrapped in silk
Dressed in white
Bathed in milk
I'll make that dream come true tonight”
E---------------------------------------------------|
B---------------------------------------------------|
G---------------------------------------------------| 2x
D-9--7--5---5--4--2---9--7--5---5-5-------7-7--5-5--|
A-7--5--3---3--2--0---7--5--3---3-3--5-5--5-5--3-3--|
E------------------------------------3-3------------|

“Yes tonight
Yes tonight
Tonight's the night
I'll turn off your lights (turn off your lights)”
Lead Guitar
E-10-----------------------------------------------------|
B-13b15r13-10-------10-13-------5---5-5-5-5-5-5-5--------|
G-------------12b14-------12~~--7b9~9-9-9-9-9-9-9r7-7b9--|
D--------------------------------------------------------|
A--------------------------------------------------------|
E--------------------------------------------------------|

E-10----------------------------|
B-13b15r13-10-------10-13-------|
G-------------12b14-------12~~--|
D-------------------------------|
A-------------------------------|
E-------------------------------|

Rhythm Guitar
E------------------------------------------|
B------------------------------------------|
G------------------------------------------|
D-5--4--2---5--4--2---5--4--2---5-----7~~--|
A-3--2--0---3--2--0---3--2--0---3--5--5~~--|
E----------------------------------3-------|

“Where did you get that skin
I've never seen such teeth
It covers up all your sin
I wonder what's underneath”
E---------------------------------------------------------|
B---------------------------8b10~~~-----------------------|
G-8--7--5---8--7--5---8--7--------------------------------|
D---------------------------------------------------------|
A-------------------------------------0-(whammy lift off)-|
E---------------------------------------------------------|

“Did you just pass me by
When did I smell your scent
I followed you from behind
Everywhere you went”
E-----------------------------------------------------|
B-----------------------------------------------------|
G-----------------------------------------------------| 2x
D-2--2--2----------------2--2--2--2-------------------|
A-0--0--0--5b6r5-0-3b4p0-0--0--0--0--5b6r5-0-3b4vvvv--|
E-----------------------------------------------------|
On the fourth time don't play the second riff, pause then play (below)

“Everywhere you went”

E------------|
B-7b8r7-5-7--|
G-7b8r7-5-7--|
D------------|
A------------|
E------------|

“My, my, my, my, my”
E--------------------------------|
B-----------------------8b10~~~--|
G--------------------------------|
D-----------------2--------------|
A-6---5---3---3---0--------------|
E--------------------------------|

“You should be wrapped in silk
You should be bathed in white
You should be wrapped in silk
I'll make that dream come true tonight
Wrapped in silk
Dressed in white
Bathed in milk
I'll make that dream come true tonight””
E---------------------------------------------------|
B---------------------------------------------------|
G---------------------------------------------------| 2x
D-9--7--5---5--4--2---9--7--5---5-5-------7-7--5-5--|
A-7--5--3---3--2--0---7--5--3---3-3--5-5--5-5--3-3--|
E------------------------------------3-3------------|

“Yes tonight
Yes tonight
Tonight's the night
I'll turn off your lights (turn off your lights)”
Lead Guitar
E-10-----------------------------------------------------|
B-13b15r13-10-------10-13-------5---5-5-5-5-5-5-5--------|
G-------------12b14-------12~~--7b9~9-9-9-9-9-9-9r7-7b9--|
D--------------------------------------------------------|
A--------------------------------------------------------|
E--------------------------------------------------------|

E-10----------------------------|
B-13b15r13-10-------10-13-------|
G-------------12b14-------12~~--|
D-------------------------------|
A-------------------------------|
E-------------------------------|

Rhythm Guitar
E-------------------------------------------------|
B-------------------------------------------------|
G-------------------------------------------------|
D-5--4--2---5--4--2---5--4--2---5-----7~~-------2-|
A-3--2--0---3--2--0---3--2--0---3--5--5~~-------0-|
E----------------------------------3--------------|
Добавлено: 25.02.2012
Другие материалы по этой песне:
  • Аккорды и текст

Страница создана 25.02.2012
http://primanota.ru/alice-cooper/wrapped-in-silk-chords.htm
Привет, Гость.
Предлагаем пройти революционный курс по гитаре.
Подарок от PrimaNota.Ru, забирай!