PrimaNota.ru - самый крупный в мире бесплатный архив песенных текстов, аккордов, табулатур и нот


Alice Cooper - You Drive Me Nervous - текст песни, таба, видео

Регистрация Запомнить меня
Войти через:  Facebook Google Twitter Vk Yandex Mail.ru

Alice Cooper - You Drive Me Nervous - текст песни, таба, видео

Печатать
Просмотров: 182
Авторы: Michael Bruce, Bob Ezrin, Alice Cooper

Artist: Alice Cooper
Song: You Drive Me Nervous
Album: Killer
Year: 1971
Tabbed by DoteStudios

 Here is the completely new version of You Drive Me Nervous, this time it is actually
I will do the solos for the song.

Note: During the solo and outro look at the order of the riffs being played marked next
the title. Also if you don't have a whammy bar use the cool technique Ryan Roxie used to
Strike the note then while the note is ringing lift the string (on the opposite side of 
you strum) and move it up and down very fast to imitate the effect.

Keys
b = bend
r = release
\ = slide up neck
/ = slide down neck
h = hammer-on
p = pull-off
~ = hold note
w = whammy bar
v = vibrato
< > = strike the notes in between the symbols while in the bend
D = strum down
U = strum up

Intro
E----------------|
B----------------|
G-7-7-7~~~-------|
D-7-7-7~~~-------|
A-5-5-5~~~-------|
E-5-5-5~~~-------|

Main riff during song
E----------------------------------------|
B----------------------------------------|
G----------------------------------------|
D----------------------------------------|
A-------3--5---------5--3----------------|
E-3--5---------5\----------5--3---3--3---|
This riff is repeated throughout riffs 1-4
in the background of the song

Riff 1
E--------------------------------------|
B-6--x--x--x--x--x--x------------------|
G-7--x--x--x--x--x--x----9-\7-----5~~--|
D-7--x--x--x--x--x--x-5--------7-------|
A-5--x--x--x--x--x--x-5----------------|
E---------------------3----------------|

Riff 2
E-----------------------------------------------|
B-6--x--x--x--x--x--x----10----10-10-10-10-10\--|
G-7--x--x--x--x--x--x----12b14~14~14~14~14~14\--|
D-7--x--x--x--x--x--x-5-------------------------|
A-5--x--x--x--x--x--x-5-------------------------|
E---------------------3-------------------------|


Riff 3
E------------------------------------|
B-6--x--x--x--x--x--x--8---8---8--x--|
G-7--x--x--x--x--x--x--7---7---7--x--|
D-7--x--x--x--x--x--x--9---9---9--x--|
A-5--x--x--x--x--x--x-------------x--|
E------------------------------------|

Riff 4
E---------------------------------------------|
B-6--x--x--x--x--x--x-------------------------|
G-7--x--x--x--x--x--x----5b7-<7--7--7>--5-----|
D-7--x--x--x--x--x--x-5--------------------3--|
A-5--x--x--x--x--x--x-5-----------------------|
E---------------------3-----------------------|

Riff 5
Guitar 1
E-------------------------------------------------|
B-15b17---15---13------13-------------------------|
G------------------14-------14---12---------------|
D-------------------------------------15--12--15\-|
A-------------------------------------------------|
E-------------------------------------------------|

Guitar 2
E-------------------------------------------------|
B---------------------------------------------6---|
G--------------------------------------5---5--7---|
D-7-----7---7-----7--7--7-----7---7----5---5--7---|
A-7-----7---7-----7--7--7-----7---7----3---4--5---|
E-5-----5---5-----5--5--5-----5---5---------------|

Riff 6
Guitar 1
E--------------------------------------------------|
B--------------------------------------------------|
G-----------------------------------------12wwwww--|
D--------------------------------------------------|
A-5b7~~~~~r5---------------------------------------|
E--------------------------------------------------|

Guitar 2
E------------------------------------------------------|
B------------------------------------------6-----------|
G---------------5--------------3-----------7-----------|
D---------------5----5----3----3----5--3---7-----------|
A-5b7~~~~~r5----3----5----3----1----5--3---5-----------|
E--------------------3----1---------3--1---------------|
Slow bend and release

Riff 7
Guitar 1
E-------------------------------15wwwww---|
B-----------------------------------------|
G-----------------------------------------|
D-----------------------------------------|
A-----------------------------------------|
E-----------------------------------------|

Guitar 2
E-----------------------------------------|
B----------------------------6------------|
G-5--------------3-----------7------------|
D-5----5----3----3----5--3---7------------|
A-3----5----3----1----5--3---5------------|
E------3----1---------3--1----------------|

Riff 8
Guitar 1
E----------------------------------|
B----------------------------------|
G---------------------------6~~~---|
D---------------------------7~~~---|
A---------------------------7~~~---|
E---------------------------5~~~---|

Guitar 2
E----------------------------------|
B----------------------------------|
G-5--------------3----------6~~~---|
D-5----5----3----3----5--3--7~~~---|
A-3----5----3----1----5--3--7~~~---|
E------3----1---------3--1--5~~~---|

Solo 1 (Riffs 1, 2, 4)

Outro (Riffs 1, 2, 1)
Guitar 3
E------------------------------------------|
B------------------------------------------|
G------------------------------------------| repeat
D-12--11---10--9--7------------------------|
A--------------------10---9--8---7---------|
E-----------------------------------10--8--|

Riff 9
E---------------------------------------------------------------------|
B-6----------------------------------------------------------6~~~~~---|
G-7----------5--5--5--5--5--4--3-----------------------------7~~~~~---|
D-7----------5--5--5--5--5--4--3-----7--7--7--7--5--3--------7~~~~~---|
A-5----------3--3--3--3--3--2--1-----7--7--7--7--5--3--------5~~~~~---|
E------------------------------------5--5--5--5--3--1--------5~~~~~---|

Intro
Riff 1
Riff 2

Riff 3 (2x)
Yeah, you
Seem so civilized
Your mama's tryin
To run your life

Riff 4
Your daddy's tryin
To pick your wife
Oh no

Riff 5

Riff 1
Yeah, you run around
With all that hair

Riff 2
They just don't like
Those rags you wear

Riff 4
You say
I'm gonna pack up my stuff
I'm gonna run away

Riff 5

Riff 6
And then you say
You drive me nervous, nervous
And then I said

Riff 7
You drive me nervous, nervous, nervous, oh

Riff 8
Nervous, nervous, nervous, nervous, whoa-oh-oh
Aaah

Solo

Riff 5

Riff 1
You're out of state
You're thrown in jail

Riff 2
You ain't got the bread
To pay the bail

Riff 4
Your mom and papa come up and said
"Honey, where did we fail?"

Riff 5

Riff 6
And then you scream
You drive me nervous, nervous

Riff 7
And then I screamed
You drive me nervous, nervous, nervous, oh

Riff 8
Nervous, nervous, nervous, nervous, whoa-oh-oh

Outro
You drive me ne-ne-ne-nervous
Ne-ne-ne-nervous
You drive me nervous
Whoa

Riff 9
Добавлено: 02.07.2012
Другие материалы по этой песне:
  • Аккорды и текст

Страница создана 21.03.2012
http://primanota.ru/alice-cooper/you-drive-me-nervous-chords.htm
Привет, Гость.
Предлагаем пройти революционный курс по гитаре.
Подарок от PrimaNota.Ru, забирай!