PrimaNota.ru - самый крупный в мире бесплатный архив песенных текстов, аккордов, табулатур и нот


Alice Cooper - Pick Up The Bones - текст песни, таба, видео

Регистрация Запомнить меня
Войти через:  Facebook Google Twitter Vk Yandex Mail.ru

Alice Cooper - Pick Up The Bones - текст песни, таба, видео

Печатать
Просмотров: 601
Уроки эстрадного вокала в Санкт-Петербурге
Artist: Alice Cooper
Song: Pick Up The Bones
Album: Brutal Planet
Year: 2000/2001 (Depends which version you have - normal or tour edition)
Tabbed By: M.B.MetalTabber

######
#SONG#
######

Intro/Riff:

 (Let Ring)
e:--------------------------|I
B:--------------------------|I
G:-----0-------0-------0----|I
D:---4---4---4---4---4---4--|I
A:-2-------0----------------|I
E:-----------------0--------|I

Verse:

e:--------------------------|I
B:--------------------------|I
G:-----0-------0-------0----|I
D:---4---4---4---4---4---4--|I
A:-2-------0----------------|I
E:-----------------0--------|I

Sorry, I haven't yet figured out the chorus or chord fill. I don't know the solo, but I 
know that it is played in the 'E minor Pentatonic Blues'
scale. For those of you who don't yet know it (Shame on you), here it is:

e:-------------------------------------12-15--|I (And then back down)
B:-------------------------------12-15--------|I
G:----------------------12-14-15--------------|I
D:----------------12-14-----------------------|I
A:-------12-13-14-----------------------------|I
E:-12-15--------------------------------------|I

Well, there it is. It's fairly easy to play. Learn and Enjoy.
(P.S. - Thanks for looking)
Добавлено: 07.03.2012
Другие материалы по этой песне:

Страница создана 07.03.2012
http://primanota.ru/alice-cooper/pick-up-the-bones-chords.htm
Привет, Гость.
Предлагаем пройти революционный курс по гитаре.
Подарок от PrimaNota.Ru, забирай!