PrimaNota.ru - самый крупный в мире бесплатный архив песенных текстов, аккордов, табулатур и нот


Alice Cooper - Raped And Freezin - текст песни, таба, видео

Регистрация Запомнить меня
Войти через:  Facebook Google Twitter Vk Yandex Mail.ru

Alice Cooper - Raped And Freezin - текст песни, таба, видео

Печатать
Просмотров: 252
Авторы: Michael Bruce, Alice Cooper

Song: Raped and Freezin'
Band: Alice Cooper
Album: Billion Dollar Babies
Year:1973
Tabbed by DoteStudios
Email is manbearpigisreal@gmail.com

Keys
b = bend
r = release
\ = slide up neck 
/ = slide down neck
h = hammer-on
p = pull-off
~ = vibrato
D = strum down
U = strum up

"Finally got a ride, this old broad down from Santa Fe”
		     “She was a real	 go-getter”
 “She 	      drawled so sweetly,     "I think, child
E-------------------------------------------------------|
B-7-----------------------------------------------------|
G-7------------------10----12--------------14-----------| 3x
D-7------------------10----12--------------14-----------|
A-5-------------------8----10--------------12-----------|
E-------------------------------------------------------|

“that things'll get better.”
E-------------------------------------------------------|
B-7-----------------------------------------------------|
G-7------------------10----12--------------13-----------|
D-7------------------10----12--------------13-----------|
A-5-------------------8----10--------------11-----------|
E-------------------------------------------------------|

“We pulled off the high-way,		          night black  as a…”
Guitar 1 (Mick Mashbir)
E-----------------------------------------------------------------|
B-7-----------------------------------------------7---------------|
G-7----5----------------------7b9-----------------7----5----------|
D------------7--5---7----7---------------------------------7--5---|
A-----------------------------------------------------------------|
E-----------------------------------------------------------------|

Guitar 2 (Michael Bruce)
E-----------------------------------------------------------------|
B-----------------------------------------------------------------|
G-2--------2--------2-----2---------------------2--------2------2-|
D-2--------2--------2-----2---------------------2--------2------2-|
A-0--------0--------0-----0-------------3-------0--------0------0-|
E-----------------------------0--0--/3----------------------------|

“Wid-ow,			    	         Yeah, I   read the Bi-ble," she said,”
Guitar 1
E-----------------------------------------------------------------------|
B---------------10-8----------------7-----------------------------------|
G---------7h8-9------9-8-7----------7----5------------------------------|
D-7---7---------------------10--7-------------7--5---7----7---2--2--2/5-|
A-----------------------------------------------------------------------|
E-----------------------------------------------------------------------|

Guitar 2
E-----------------------------------------------------------------------|
B-----------------------------------------------------------------------|
G----2----------------------------2--------2--------2-----2-------------|
D----2----------------------------2--------2--------2-----2-------------|
A----0-----------------3----------0--------0--------0-----0-------------|
E-----------0--0--/3-------------------------------------------0--0--/3-|

           "I wanna know  of you."
Guitar 1
E--------------------------------------7----------|
B--------------7-------------------8--------------|
G-5---------7------7-----------7------------------|
D-----7/9-------------9----9----------------------|
A-------------------------------------------------|
E-------------------------------------------------|

Guitar 2
E-------------2-------2---------------------------|
B-------------3-------3-----6---6----6----5--3----|
G------2/4----4-------4---------------------------|
D------------------0------------------------------|
A-3-----------------------------------------------|
E-------------------------------------------------|

“Hey, 		    I think I've got a live one”
“Hey, 		    I think I found a live one”
“Hey, Hey, 	    I think I've got a live one”
“Yeah, Yeah, 	    I think I've got a live one”
E-/5-----5-----5--3-----2----2------3---------|
B-/7-----7-----5--3-----3----3------3----2----|
G-/7-----7-----6--4-----2----2------0----2----| 4x
D--0-----0-----0--0-----0----0------0----2----|
A--0--------------------------------x----0----|
E-----------------------------------3---------|

E-------------------------------------------------------|
B-7--7--7\----------------------------------------------|
G-7--7--7\-----------10----12--------12----14-----------| 4x
D-7--7--7\-----------10----12--------12----14-----------|
A-5--5--5\------------8----10--------10----12-----------|
E-------------------------------------------------------|

		“Oh”
		“Ok boys”
“Felt like I was hit by a diesel or a greyhound bus.”
		“She was no baby-sitter.”
"Keee… 		     Now sugar, 	Never…”
E-------------------------------------------------------|
B-7--7--7\----------------------------------------------|
G-7--7--7\-----------10----12--------12----14-----------| 4x
D-7--7--7\-----------10----12--------12----14-----------|
A-5--5--5\------------8----10--------10----12-----------|
E-------------------------------------------------------|

“…thought you'd be a quitter."
E-------------------------------------------------------|
B-7--7--7\----------------------------------------------|
G-7--7--7\-----------10----12--------------13-----------|
D-7--7--7\-----------10----12--------------13-----------|
A-5--5--5\------------8----10--------------11-----------|
E-------------------------------------------------------|

“I open  - ed the  back door, she was greedy,    I ran through the ”
Guitar 1
E-----------------------------------------------------------------|
B-7-----------------------------------------------7---------------|
G-7----5---------------------------------5--------7----5----------|
D------------7--5---7----7----2--2--2/5-----7--------------7--5---|
A-----------------------------------------------------------------|
E-----------------------------------------------------------------|

Guitar 2
E-----------------------------------------------------------------|
B-----------------------------------------------------------------|
G-2--------2--------2-----2-----------------------2--------2------|
D-2--------2--------2-----2-----------------------2--------2------|
A-0--------0--------0-----0-------------3---------0--------0------|
E-----------------------------0--0--/3----------------------------|

“des-ert  she was chasin'.     No   time to get dressed, so I was naked”
Guitar 1
E----------------------------------------------------------------------|
B-------------------------------7--------------------------------------|
G----------------------5--------7----5---------------------------------|
D-7----7----2--2--2/5-----7--------------7--5---7----7----2--2--2/5----|
A----------------------------------------------------------------------|
E----------------------------------------------------------------------|

Guitar 2
E----------------------------------------------------------------------|
B----------------------------------------------------------------------|
G-2-----2-----------------------2--------2--------2-----2--------------|
D-2-----2-----------------------2--------2--------2-----2--------------|
A-0-----0--------------3--------0--------0--------0-----0--------------|
E------------0--0--/3----------------------------------------0--0--/3--|

“Stranded in Chihuahua.”
Guitar 1
E--------------------------------------7----------|
B--------------7-------------------8--------------|
G-5---------7------7-----------7------------------|
D-----7/9-------------9----9----------------------|
A-------------------------------------------------|
E-------------------------------------------------|

Guitar 2
E-------------2-------2---------------------------|
B-------------3-------3-----6---6----6----5--3----|
G------2/4----4-------4---------------------------|
D------------------0------------------------------|
A-3-----------------------------------------------|
E-------------------------------------------------|

“Hey, 		    I think I've got a live one”
“Hey, 		    I think I found a live one”
“Hey, Hey, 	    I think I've got a live one”
“Yeah, Yeah, 	    I think I've got a live one”
E-/5-----5-----5--3-----2----2------3---------|
B-/7-----7-----5--3-----3----3------3----2----|
G-/7-----7-----6--4-----2----2------0----2----| 4x
D--0-----0-----0--0-----0----0------0----2----|
A--0--------------------------------x----0----|
E-----------------------------------3---------|

Solo 1
Guitar 2
E----------------------------5------------------------------------------|
B-------------3---5--3--5/7-----7---3--3/5----3-------------------------|
G-------2--4---------------------------------------4----2---------2--4--|
D-2--4-----------------------------------------------------2--4---------|
A-----------------------------------------------------------------------|
E-----------------------------------------------------------------------|

E------------------5b7---5b7---5--7--5----------------------------------|
B-6---5---5p3p0-------------------------5b7---7r5--3--5--3--------------|
G-----------------------------------------------------------4---------2-|
D--------------------------------------------------------------2--4-----|
A-----------------------------------------------------------------------|
E-----------------------------------------------------------------------|

E---------------------------------------|
B-3-------3----6----6--5---3-----5------|
G----4------------------------4-----4\--|
D---------------------------------------|
A---------------------------------------|
E---------------------------------------|

Guitar 1
E-------------------------------------------------------|
B-7--7--7\----------------------------------------------|
G-7--7--7\-----------10----12--------12----14-----------| 4x
D-7--7--7\-----------10----12--------12----14-----------|
A-5--5--5\------------8----10--------10----12-----------|
E-------------------------------------------------------|

E-------------------------------------------------------|
B-------------------------------------------------------|
G-7--7--7\----------------------------------------------|
D-7--7--7\------------3----5----------------6-----------|
A-5--5--5\------------3----5----------------6-----------|
E---------------------1----3----------------4-----------|

Solo 2
Guitar 1
E------12b14-----12--11--10--8b9----------------------------------------|
B-10------------------------------10--10----7--10--8----5--8--7------7--|
G-----------------------------------------------------------------7-----|
D-----------------------------------------------------------------------|
A-----------------------------------------------------------------------|
E-----------------------------------------------------------------------|

E------------------------5-----5---5--5---20b22-----20-----17-----------|
B---------------------------8----------------------------------17---17--|
G------------------7b9--------------------------------------------------|
D-9b10---7--6--5--------------------------------------------------------|
A-----------------------------------------------------------------------|
E-----------------------------------------------------------------------|

E-----------------------------------------------------------------------|
B-15--13----------------------------------------------------------------|
G----------14--12----------7----9b11-hold-11r9p7--9---7-----------------|
D---------------------7/9---------------------------------9---9--p7-----|
A--------------------------------------------------------------------9--|
E-----------------------------------------------------------------------|

Guitar 2
E-----------------------------------------------------------------|
B-----------------------------------------------------------------|
G-2--------2--------2-----2-----------------------2--------2------|
D-2--------2--------2-----2-----------------------2--------2------|
A-0--------0--------0-----0-------------3---------0--------0------|
E-----------------------------0--0--/3----------------------------|

E-----------------------------------------------------------------------|
B-----------------------------------------------------------------------|
G-2-----2------------------------2--------2--------2-----2--------------|
D-2-----2------------------------2--------2--------2-----2--------------|
A-0-----0--------------3---------0--------0--------0-----0--------------|
E------------0--0--/3-----------------------------------------0--0--/3--|

E-------------2-------2------------------------|
B-------------3-------3-----6--6----6----5--3--|
G------2/4----4-------4------------------------|
D------------------0---------------------------|
A-3--------------------------------------------|
E----------------------------------------------|

“Hey, 		    I think I've got a live one”
“Hey, 		    I think I found a live one”
“Hey, Hey, 	    I think I've got a live one”
“Yeah, Yeah, 	    I think I've got a live one”
E-/5-----5-----5--3-----2----2------3---------|
B-/7-----7-----5--3-----3----3------3----2----|
G-/7-----7-----6--4-----2----2------0----2----| 4x
D--0-----0-----0--0-----0----0------0----2----|
A--0--------------------------------x----0----|
E-----------------------------------3---------|

“Alone, raped and freezin'”
E-2-----------------------------------------0-------|
B-3-----------------------------------------0-------|
G-4-----------------------------------------1-------|
D-4-----------------------------------------2-------|
A-2-------------------------------2----0----2-------|
E-------------------------------------------0-------|

“Alone, cold and sneezin',	     Alone, down in Mexico”
E------------------------------3----------------------------------|
B------------------------------3--------------------------2-------|
G------------------------------0--------------------------2-------|
D------------------------------0--------------------------2-------|
A------------------------------x--------------------------x-------|
E-------------------------2----3--------------------------3-------|

“Alone!”
E------------------|
B-2-----2----2--2--|
G-2-----2----2--2--|
D-2-----2----2--2--|
A-0-----0----0--0--|
E------------------|

“Ei…yi yi yi yi yi ya ya-daba yaba dap da…”
Acoustic Guitar
  D  U  D   D  D   D  U   D  U  D 
E-2--2--2----------3--3------------|
B-3--3--3---2--x---0--0---2--2--2--|
G-2--2--2---2--x---0--0---2--2--2--| 7x
D-0--0--0---2--x---0--0---2--2--2--|
A-----------0--x---x------0--0--0--|
E------------------3---------------|

E-2--2--3------|
B-3--3--3---2--|
G-2--2--0---2--| 4x
D-0--0--0---2--|
A-----------0--|
E--------------|
Добавлено: 16.06.2012
Другие материалы по этой песне:

Страница создана 14.03.2012
http://primanota.ru/alice-cooper/raped-and-freezin-chords.htm
Привет, Гость.
Предлагаем пройти революционный курс по гитаре.
Подарок от PrimaNota.Ru, забирай!