PrimaNota.ru - самый крупный в мире бесплатный архив песенных текстов, аккордов, табулатур и нот


Alice Cooper - Mary Ann - текст песни, таба, видео

Регистрация Запомнить меня
Войти через:  Facebook Google Twitter Vk Yandex Mail.ru

Alice Cooper - Mary Ann - текст песни, таба, видео

Печатать
Просмотров: 244
Уроки эстрадного вокала в Санкт-Петербурге
Авторы: Michael Bruce, Alice Cooper

Band: Alice Cooper
Song: Mary Ann
Album: Billion Dollar Babies
Year: 1973
Tabbed by DoteStudios
Email is manbearpigisreal@gmail.com

 Another piano of Alice's that I tabbed (the other being Beautiful Flyaway). Everything 
tabbed before the piano solo is what Alice is singing (transcribed to guitar of course).

“Mary-Ann, I'm really crazy
about you, deed I am
I just can't live without you, Mary-Ann
Mary-Ann”
E-------------------------------------------------------------------|
B---4----------4-----------------------------------7-5--------------|
G-6----4---6-6---6-4------------------------------------6---4-6-----|
D--------------------6----4-4-6---------4-5-4-----------------------|
A----------------------7--------7---7-7-------7-4----------------7--|
E-------------------------------------------------------------------|

“Mary-Ann”

“My life was built around you
Stars and sand, your eyes were
pools of laughter, Mary-Ann
I thought you were my man”
E---------------------------------------------------------------------|
B------4----------------------------------7-5-------------------------|
G--6-6---6-4-----------------------------------6---6-6-------4--------|
D------------6----4--6---------4-5-4---------------------4h6----6-----|
A--------------7-------7---7-7-------7-4---------------7-----------7--|
E---------------------------------------------------------------------|

Piano Solo:
E-------------------------------------------------------------------|
B----9------------9--------------------------------------12-10------|
G-11----9---11-11---11-9----------------------------------------11--|
D------------------------11-----9--11---------9-10-9----------------|
A---------------------------12--------12---12--------12-------------|
E-------------------------------------------------------------------|

E--------------------------------------------------------------------|
B-------9-----------9-------------------------------------12-10------|
G-11-11---9---11-11---11-9---------------------------------------11--|
D--------------------------11-----9--11--------9-10-9----------------|
A-----------------------------12--------12--12--------12-------------|
E--------------------------------------------------------------------|

E----------------------------------------------------------------------|
B----9------------9-----------------------------------------12-10------|
G-11----9---11-11---11-9-------------------------------------------11--|
D------------------------11-----9--11------------9-10-9----------------|
A---------------------------12--------12---12-12--------12-------------|
E----------------------------------------------------------------------|

E-----------------------------------------------------------------------|
B-------9-------------9----------------------------------------12-10----|
G-11-11---9--11-11-11---11-9------------------------------------------11|
D----------------------------11-----9--11-----------9-10-9--------------|
A-------------------------------12--------12--12-12--------12-----------|
E-----------------------------------------------------------------------|
 
E---------------------------------------------------------------------|
B----9------------9----------------------------------------12-10------|
G-11----9---11-11---11-9------------------------------------------11--|
D------------------------11-----9--11-----------9-10-9----------------|
A---------------------------12--------12--12-12--------12-------------|
E---------------------------------------------------------------------|
Добавлено: 10.07.2012
Другие материалы по этой песне:
  • Аккорды и текст

Страница создана 03.03.2012
http://primanota.ru/alice-cooper/mary-ann-chords.htm
Привет, Гость.
Предлагаем пройти революционный курс по гитаре.
Подарок от PrimaNota.Ru, забирай!