PrimaNota.ru - самый крупный в мире бесплатный архив песенных текстов, аккордов, табулатур и нот


Alice Cooper - Nurse Rozetta - текст песни, таба, видео

Регистрация Запомнить меня
Войти через:  Facebook Google Twitter Vk Yandex Mail.ru

Alice Cooper - Nurse Rozetta - текст песни, таба, видео

Печатать
Просмотров: 154
Band: Alice Cooper
Song: Nurse Rozetta
Album: From the Inside
Year: 1979
Tabbed by DoteStudios
Email is undermywheels71@gmail.com

Keys
b = bend
r = release
\ = slide up neck 
/ = slide down neck
h = hammer-on
p = pull-off
~ = hold note
w = whammy bar
v = vibrato
t = trill (very fast hammer-ons)

Keyboard
E--------------------------------------------|
B-2----2----2---2-----2-1--2----2----2---2---|
G---3----1-------------------3----1----------|
D-------------4---3--------------------4---3-|
A--------------------------------------------|
E--------------------------------------------|

E-1-0--1----1----1---1-----1-0--1----1---|
B--------3----1-------------------3----1-|
G------------------3---2-----------------|
D----------------------------------------|
A----------------------------------------|
E----------------------------------------|

Guitar
E----------------------------|
B----------------------------|
G-6~~~---4~~~---3~~~---5~~~--|
D-6~~~---4~~~---3~~~---5~~~--|
A-4~~~---2~~~---1~~~---3~~~--|
E----------------------------|

E---------------------------------------------------------------------|
B---------------------------------------------------------------------|
G---------------------------------------------------------------------|
D-8-8-8-8--7-x-7v~-6-6-6-6--7-x-7v~-8-8-8-8--7-x-7v~-6-6-6-6--7-7-7-7-|
A-8-8-8-8--8-x-8v~-6-6-6-6--8-x-8v~-8-8-8-8--8-x-8v~-6-6-6-6--8-8-8-8-|
E---------------------------------------------------------------------|

“I'm a shepherd for the pentecost
I got my scriptures and my wires crossed
I got no kids and I got no home
They want us holy men to live alone”
E-----------------------------------|
B-----------------------------------|
G-----------------------------------| 2x
D-8-8-8-8--7-x-7v~-6-6-6-6--7-x-7v~-|
A-8-8-8-8--8-x-8v~-6-6-6-6--8-x-8v~-|
E-----------------------------------|

“Since I've been here for a little stay
I see Rozetta day by day
She turns my head makes me cough”
E----------------------------------------------------|
B----------------------------------------------------|
G-8-8-8-8--7-x-7v~-6-6-6-6--7-x-7v~-8-8-8-8--7-x-7v~-|
D-8-8-8-8--8-x-8v~-6-6-6-6--8-x-8v~-8-8-8-8--8-x-8v~-|
A----------------------------------------------------|
E----------------------------------------------------|

“I want to tear my collar off”
E-----------------------------|
B-----------------------------|
G---------------8~~~----------|
D-9~~~----------8~~~----------|
A-9~~~----------6~~~----------|
E-7~~~------------------------|

“I just can't sleep at night
Rozetta dressed in white”
Guitar 1
E-------------------------------------------------|
B---------------------1~~---------------------4~~-|
G-1--1-1--1-3--1-3--1-1~~-1--1-1--1-3--1-3--3-4~~-|
D-1--1-1--1-3--1-3--1-1~~-1--1-1--1-3--1-3--3-4~~-|
A-------------------------------------------------|
E-------------------------------------------------|

Guitar 2
E-------------------------------------------------|
B-------------------------------------------------|
G-----------5----5----5~~-----------5----5----8~~-|
D-6--6-6--6-6--6-6--6-6~~-6--6-6--6-6--6-6--6-9~~-|
A-6--6-6--6-6--6-6--6-6~~-6--6-6--6-6--6-6--6-9~~-|
E-4--4-4--4-4--4-4--4-4~~-4--4-4--4-4--4-4--4-7~~-|

“She's got the Devil's light”
Guitar 1
E---------------------------------------|
B---------------------4~~---------------|
G-4--4-4--4-6--4-6--4-4~~-4--4-4--4~~~--|
D-4--4-4--4-6--4-6--4-4~~-4--4-4--4~~~--|
A---------------------------------2~~~--|
E---------------------------------------|

Guitar 2
E----------------------------------------|
B----------------------------------------|
G-----------8----8----8~~---------8~~~---|
D-9--9-9--9-9--9-9--9-9~~-9--9-9--9~~~---|
A-9--9-9--9-9--9-9--9-9~~-9--9-9--9~~~---|
E-7--7-7--7-7--7-7--7-7~~-7--7-7--7~~~---|

“Shining in her eyes”
E-----------------------|
B-----------------------|
G----------------10~~~--|
D----------------10~~~--|
A-----------------8~~~--|
E-----------------------|

E----------------------------|
B----------------------------|
G-3-2--3----3----------------| 3x
D--------5----3--5-----3p2-3-|
A------------------3h5-------|
E----------------------------|

“Screamed my sermon damning sin and vice
When underneath I was a regular guy
My pulpit melted like a block of ice
When a bolt of lightning hit me from the sky”
E-----------------------------------|
B-----------------------------------|
G-----------------------------------| 2x
D-8-8-8-8--7-x-7v~-6-6-6-6--7-x-7v~-|
A-8-8-8-8--8-x-8v~-6-6-6-6--8-x-8v~-|
E-----------------------------------|

“From my stretcher when they wheeled me in
I stared directly in the eyes of sin
Nurse Rozetta standing over me”
E----------------------------------------------------|
B----------------------------------------------------|
G-8-8-8-8--7-x-7v~-6-6-6-6--7-x-7v~-8-8-8-8--7-x-7v~-|
D-8-8-8-8--8-x-8v~-6-6-6-6--8-x-8v~-8-8-8-8--8-x-8v~-|
A----------------------------------------------------|
E----------------------------------------------------|

“And I was helpless as a man of God could be”
E-------------------------------------------|
B-------------------------------------------|
G---------------------8~~~------------------|
D-9~~~----------------8~~~------------------|
A-9~~~----------------6~~~------------------|
E-7~~~--------------------------------------|

“I just can't sleep at night
Rozetta dressed in white”
Guitar 1
E-------------------------------------------------|
B---------------------1~~---------------------4~~-|
G-1--1-1--1-3--1-3--1-1~~-1--1-1--1-3--1-3--3-4~~-|
D-1--1-1--1-3--1-3--1-1~~-1--1-1--1-3--1-3--3-4~~-|
A-------------------------------------------------|
E-------------------------------------------------|

Guitar 2
E-------------------------------------------------|
B-------------------------------------------------|
G-----------5----5----5~~-----------5----5----8~~-|
D-6--6-6--6-6--6-6--6-6~~-6--6-6--6-6--6-6--6-9~~-|
A-6--6-6--6-6--6-6--6-6~~-6--6-6--6-6--6-6--6-9~~-|
E-4--4-4--4-4--4-4--4-4~~-4--4-4--4-4--4-4--4-7~~-|

“She's got the Devil's light”
Guitar 1
E---------------------------------------|
B---------------------4~~---------------|
G-4--4-4--4-6--4-6--4-4~~-4--4-4--4~~~--|
D-4--4-4--4-6--4-6--4-4~~-4--4-4--4~~~--|
A---------------------------------2~~~--|
E---------------------------------------|

Guitar 2
E----------------------------------------|
B----------------------------------------|
G-----------8----8----8~~---------8~~~---|
D-9--9-9--9-9--9-9--9-9~~-9--9-9--9~~~---|
A-9--9-9--9-9--9-9--9-9~~-9--9-9--9~~~---|
E-7--7-7--7-7--7-7--7-7~~-7--7-7--7~~~---|

“Shining in her eyes”
E-----------------------|
B-----------------------|
G----------------10~~~--|
D----------------10~~~--|
A-----------------8~~~--|
E-----------------------|

E----------------------------|
B----------------------------|
G-3-2--3----3----------------| 3x
D--------5----3--5-----3p2-3-|
A------------------3h5-------|
E----------------------------|

“Nurse Rozetta I won't let her
Catch me peering down her sweater
Fantasizing silk suspenders on her thighs”
E---------------------------------------------------|
B-5------5------5------5------5------4------7-------|
G---------------------------------------------------|
D----7------7------7------7------5------4------9~~--|
A---------------------------------------------------|
E---------------------------------------------------|

“Nurse Rozetta make me better
Secretly my eyes undress her
Let me feel your tongue depressor”
E-------------------------------------------|
B-5------5------5------5------5------4------|
G-------------------------------------------|
D----7------7------7------7------5------4---|
A-------------------------------------------|
E-------------------------------------------|

“I'm suddenly twice my size
My pants are all wet inside”
E--------------------------|
B--------------------------|
G-6-6-6---6--4--2---6-6-6--|
D-6-6-6---6--4--2---6-6-6--|
A-4-4-4---4--2--0---4-4-4--|
E--------------------------|

Keyboard
E--------------------------------------------|
B-2----2----2---2-----2-1--2----2----2---2---|
G---3----1-------------------3----1----------|
D-------------4---3--------------------4---3-|
A--------------------------------------------|
E--------------------------------------------|

E-1-0--1----1----1---1-----1-0--1----1---|
B--------3----1-------------------3----1-|
G------------------3---2-----------------|
D----------------------------------------|
A----------------------------------------|
E----------------------------------------|

Guitar
E----------------------------|
B----------------------------|
G-6~~~---4~~~---3~~~---5~~~--|
D-6~~~---4~~~---3~~~---5~~~--|
A-4~~~---2~~~---1~~~---3~~~--|
E----------------------------|

“She's so creative with a bar of soap
And so inventive with a stethoscope
To check my pulse she gotta hold my hand
I blow the fuse on the encephalogram”
E-----------------------------------|
B-----------------------------------|
G-----------------------------------| 2x
D-8-8-8-8--7-x-7v~-6-6-6-6--7-x-7v~-|
A-8-8-8-8--8-x-8v~-6-6-6-6--8-x-8v~-|
E-----------------------------------|

“Satan sent her from the bowels of hell
I should have recognized old Jezbel
I surrendered to the urges felt”
E----------------------------------------------------|
B----------------------------------------------------|
G-8-8-8-8--7-x-7v~-6-6-6-6--7-x-7v~-8-8-8-8--7-x-7v~-|
D-8-8-8-8--8-x-8v~-6-6-6-6--8-x-8v~-8-8-8-8--8-x-8v~-|
A----------------------------------------------------|
E----------------------------------------------------|

“She popped the buckle on my bible belt”
E--------------------------------------|
B--------------------------------------|
G----------------------8~~~------------|
D-9~~~-----------------8~~~------------|
A-9~~~-----------------6~~~------------|
E-7~~~---------------------------------|

“I just can't sleep at night
Rozetta dressed in white”
Guitar 1
E-------------------------------------------------|
B---------------------1~~---------------------4~~-|
G-1--1-1--1-3--1-3--1-1~~-1--1-1--1-3--1-3--3-4~~-|
D-1--1-1--1-3--1-3--1-1~~-1--1-1--1-3--1-3--3-4~~-|
A-------------------------------------------------|
E-------------------------------------------------|

Guitar 2
E-------------------------------------------------|
B-------------------------------------------------|
G-----------5----5----5~~-----------5----5----8~~-|
D-6--6-6--6-6--6-6--6-6~~-6--6-6--6-6--6-6--6-9~~-|
A-6--6-6--6-6--6-6--6-6~~-6--6-6--6-6--6-6--6-9~~-|
E-4--4-4--4-4--4-4--4-4~~-4--4-4--4-4--4-4--4-7~~-|

“She's got the Devil's light”
Guitar 1
E---------------------------------------|
B---------------------4~~---------------|
G-4--4-4--4-6--4-6--4-4~~-4--4-4--4~~~--|
D-4--4-4--4-6--4-6--4-4~~-4--4-4--4~~~--|
A---------------------------------2~~~--|
E---------------------------------------|

Guitar 2
E----------------------------------------|
B----------------------------------------|
G-----------8----8----8~~----------------|
D-9--9-9--9-9--9-9--9-9~~-9--9-9--9------|
A-9--9-9--9-9--9-9--9-9~~-9--9-9--9------|
E-7--7-7--7-7--7-7--7-7~~-7--7-7--7------|

“Shining in her eyes”
E--------------------|
B--------------------|
G-4--6---4--6---3~~--|
D-4--6---4--6---3~~--|
A-2--4---2--4---1~~--|
E--------------------|

“I'd lick her nylon seams
Like a hungry cat with cream”
Guitar 1
E-------------------------------------------------|
B---------------------3~~---------------------6~~-|
G-3--3-3--3-5--3-5--3-3~~-3--3-3--3-5--3-5--5-6~~-|
D-3--3-3--3-5--3-5--3-3~~-3--3-3--3-5--3-5--5-6~~-|
A-------------------------------------------------|
E-------------------------------------------------|

Guitar 2
E--------------------------------------------------|
B--------------------------------------------------|
G-----------7----7----7~~-----------5----5----10~~-|
D-8--8-8--8-8--8-8--8-8~~-8--8-8--8-8--8-8--8-11~~-|
A-8--8-8--8-8--8-8--8-8~~-8--8-8--8-8--8-8--8-11~~-|
E-6--6-6--6-6--6-6--6-6~~-6--6-6--6-6--6-6--6--9~~-|

“Oh what a vivid scene”
Guitar 1
E-------------------------------------|
B---------------------6~~-------------|
G-6--6-6--6-8--6-8--6-6~~-6--6-6--6---|
D-6--6-6--6-8--6-8--6-6~~-6--6-6--6---|
A---------------------------------4---|
E-------------------------------------|

Guitar 2
E--------------------------------------------------|
B--------------------------------------------------|
G---------------10-----10-----10~~------------10---|
D-11--11-11--11-11--11-11--11-11~~-11--11-11--11---|
A-11--11-11--11-11--11-11--11-11~~-11--11-11--11---|
E--9---9--9---9--9---9--9---9--9~~--9---9--9---9---|

“And I can't hold back no more…
No, I can't hold back no more…”
E----------------------------|
B----------------------------|
G-5-4--5----5----------------| 11x
D--------7----5--7-----5p4-5-|
A------------------5h7-------|
E----------------------------|
Добавлено: 26.04.2012
Другие материалы по этой песне:
  • Аккорды и текст

Страница создана 24.02.2012
http://primanota.ru/alice-cooper/nurse-rozetta-chords.htm
Привет, Гость.
Предлагаем пройти революционный курс по гитаре.
Подарок от PrimaNota.Ru, забирай!