PrimaNota.ru - самый крупный в мире бесплатный архив песенных текстов, аккордов, табулатур и нот


Alice Cooper - I Like Girls - текст песни, таба, видео

Регистрация Запомнить меня
Войти через:  Facebook Google Twitter Vk Yandex Mail.ru

Alice Cooper - I Like Girls - текст песни, таба, видео

Печатать
Просмотров: 221
Авторы: Erik Scott, John Nitzinger, Alice Cooper

Band: Alice Cooper
Song: I Like Girls
Album: Zipper Catches Skin
Year: 1982
Tabbed by DoteStudios
Email is undermywheels71@gmail.com

Keys
b = bend
r = release
\ = slide up neck 
/ = slide down neck
h = hammer-on
p = pull-off
. = palm muted notes (rest your strumming palm on the strings while playing the notes)

Riff 1
Guitar 1
E---------------------------------|
B-----------------------3-3--2----|
G-----------------------2-2--2----|
D-----------------------0-0--2----|
A---------------------------------|
E---------------------------------|

Guitar 2 (palm muted)
E---------------------------------|
B---------------------------------|
G---------------------------------|
D---------------------------------|
A-.-.-.-.-.-.-.-.-.-.-.-.-.-.-.-.-|
E-0-0-3-4-0-0-3-4-0-0-3-4-0-0-3-4-|

Riff 2
Guitar 2 (only)
E-----------------|
B-----------------|
G-----------------|
D-----------------|
A-----------------|
E-0-0-2-2-3-3-4-4-|

Guitar 1
E---5------5--------5-------5-----|
B---5------5--------5-------5-----|
G---------------------------------|
D---------------------------------|
A---------------------------------|
E---------------------------------|

Guitar 2 (palm muted)
E---------------------------------|
B---------------------------------|
G---------------------------------|
D-.-.-.-.-.-.-.-.-.-.-.-.-.-.-.-.-|
A-0-0-3-4-0-0-3-4-0-0-3-4-0-0-3-4-|
E---------------------------------|


Riff 2
Guitars 1 and 2
E------------------------------------------------------------------|
B-3---3-3--5----2-3--3--3-3--5----3---3-3--5----2--3--3--3-3--6----|
G-2---2-2--4----2-2--2--2-2--4----2---2-2--4----2--2--2--2-2--5----|
D-0---0-0--2----0-0--0--0-0--2----0---0-0--2----0--0--0--0-0--3----|
A------------------------------------------------------------------|
E------------------------------------------------------------------|

Solo
Guitar 1
E---5------5--------5-------5-----|
B---5------5--------5-------5-----|
G---------------------------------|
D---------------------------------|
A---------------------------------|
E---------------------------------|

Guitar 2 (palm muted)
E---------------------------------|
B---------------------------------|
G---------------------------------|
D-.-.-.-.-.-.-.-.-.-.-.-.-.-.-.-.-|
A-0-0-3-4-0-0-3-4-0-0-3-4-0-0-3-4-|
E---------------------------------|
(these are palm muted notes)

Guitar 3
E---------------------------------------------------------|
B------5--------------------------5-----------------5~~v--|
G---------------------------------------------------------|
D-7b9~~~~9~9~8~8r7-7-5h6-----7b9~~~~9~9~8~8r7-7-5h6-------|
A------------------------7~~------------------------------|
E---------------------------------------------------------|

E-----------------------------------------------------------------------|
B------5----------------------------------------------------------------|
G-----------------------------------------------------------------------|
D-7b9~~~~9~9~8~8r7-7-5h6-----7-7b9~~~9r8~~8~~8r7~7-7-7p6~b7r6b7r6b7r6~~-|
A------------------------7~~--------------------------------------------|
E-----------------------------------------------------------------------|

Riff 1 (5x)
I bought a Porsche
And I'm leavin' Grand Rapids
Quit my job, quit my school,
Quit this place
My mother cried
My father was fried
Hey, I've got no time, man
I wanna say goodbye to my babes

Riff 2
I like girls

Riff 1 (3x)
I dumped Sheila on Thursday
I'll drop Melissa today
I'll kiss some tears off of Donna
Ask if she'll call on Shauna
Amanda, and Sandra and Kay

Riff 2 (2x)
I like girls, I love 'em to death

Riff 3
Hey Valentino! You goin' somewhere?
You wouldn't sneak out on me, would you?
What's that a blond hair?
He must visualize himself an Errol Flynn

Solo

Riff 1 (3x)
I see myself a suave sophisticated lover
I'll meet a rich hot old Hollywood dame
You see, my ultimate goal
Will be my life bein' told
In a penthouse letter that I can frame

Riff 2 (2x)
And keep at home.
I like girls, I love 'em, oh yeah

Riff 3
New luggage? Did you say you were going
Somewhere? Oh, just out for some fresh air.
Does she have a nice pair?

Riff 1(4x)
He was swallowed alive by the freeway
Turned into an ant on parade
He bravely drove off that beast
Aimed his car back to the east
Why be a snack at home?

Riff 2 (2x)
I'm a feast, for the girls

Riff 1 (2x)
I like girls, I really like 'em
Well, well, well. Look who's back. Run out of gas?
Patty, I was just gonna call you. 

Riff 2 (4x)
Look...
I left Donna and Shauna
And Katy and Carrie
Melissa and Dena
I just didn't have any use for 'em
I just want you
Really, no really, honest!

Oink off!
Добавлено: 18.07.2012
Другие материалы по этой песне:
  • Аккорды и текст

Страница создана 15.07.2012
http://primanota.ru/alice-cooper/i-like-girls-chords.htm
Привет, Гость.
Предлагаем пройти революционный курс по гитаре.
Подарок от PrimaNota.Ru, забирай!