PrimaNota.ru - самый крупный в мире бесплатный архив песенных текстов, аккордов, табулатур и нот


Alice Cooper - Im Hungry - таба, видео

Регистрация Запомнить меня
Войти через:  Facebook Google Twitter Vk Yandex Mail.ru

Alice Cooper - Im Hungry - таба, видео

Печатать
Просмотров: 185
this song is one of my favourite from the album along came a spider.

intro:
----------------------------|
----------------------------|
-5-6-7----------------------|
-5-6-7-5-6-7----------------|
-3-4-5-5-6-7----------------|
-------3-4-5----------------|

I got a head full of faces, a heart full of pain
--------------------------------|
--------------------------------|
-5-6-7--------------------------|
-5-6-7--------------------------|
-3-4-5--------------------------|
--------------------------------|

I got some bad ideas feeding my brain...
----------------------------------|
----------------------------------|
-9-10-11--------------------------|
-9-10-11--------------------------|
-7-8--9---------------------------|
----------------------------------|

----------------------------------|
----------------------------------|
-5-6-7---5-6-7--9-10-11--9-10-11--|
-5-6-7---5-6-7--9-10-11--9-10-11--|
-3-4-5---3-4-5--7-8--9---7-8--9---|
----------------------------------|

I got an eye for the beauties and a mouth full of charm
--------------------------------|
--------------------------------|
-5-6-7---5-6-7------------------|
-5-6-7---5-6-7------------------|
-3-4-5---3-4-5------------------|
--------------------------------|

I got a tongue dripping poison tattooed on my arm
------------------------------------------------|
------------------------------------------------|
------------------------------------------------|
-5-6-7------5-6-7-------------------------------|
-5-6-7------5-6-7-------------------------------|
-3-4-5------3-4-5-------------------------------|

-------------------------------------|
-------------------------------------|
-------------------------------------|
--777777-----------------------------|
--777777-----------------------------|
--555555-----------------------------|

Gimme gimme gimme gimme something to eat
----------------------------------------|
----------------------------------------|
-7-7-7-7------5-6-7---------------------|
-7-7-7-7------5-6-7---------------------|
-5-5-5-5------3-4-5---------------------|
----------------------------------------|

Gimme gimme gimme gimme something so sweet
----------------------------------------|
----------------------------------------|
-7-7-7-7--------------------------------|
-7-7-7-7--7-6-5-------------------------|
-5-5-5-5--7-6-5-------------------------|
----------5-4-3-------------------------|

Gimme gimme gimme gimme something to chew
----------------------------------------|
----------------------------------------|
--7-7-7-7---5-6-7-----------------------|
--7-7-7-7---5-6-7-----------------------|
--5-5-5-5---3-4-5-----------------------|
----------------------------------------|

Something soft and tender... how 'bout you?
-----------------------------------------|
-----------------------------------------|
--9-----7-7------------------------------|
--9-----7-7-7----------------------------|
--7-----5-5-7----------------------------|
------------5----------------------------|

I'm hungry...
-----------------------------|
-----------------------------|
-5-7-------------------------|
-5-7-------------------------|
-3-5-3-4-5-------------------|
-----------3-----------------|

------------------------------|
------------------------------|
-5----9-10-11-----------------|
-5----9-10-11-----------------|
-3----7-8--9------------------|
------------------------------|

I got a smile for the lady that goes on my face
----------------------------------------|
----------------------------------------|
-5-6-7---5-6-7--------------------------|
-5-6-7---5-6-7--------------------------|
-3-4-5---3-4-5--------------------------|
----------------------------------------|

I got a kiss on my lips that leads to my place
----------------------------------|
----------------------------------|
-9-11-11----9-10-11---------------|
-9-10-11----9-10-11---------------|
-7-8--9-----7-8--9----------------|
----------------------------------|

I got a bed in my basement fit for two
----------------------------------------|
----------------------------------------|
-5-------5-6-7--------------------------|
-5-------5-6-7--------------------------|
-3-------3-4-5--------------------------|
----------------------------------------|

I got some chloroform and handcuffs just for you
---------------------------------------------|
---------------------------------------------|
-7--------------------------------9-10-11----|
-7--------------------------------9-10-11----|
-5--------------------------------7-8--9-----|
---------------------------------------------|

Woo hoo oo...
----------------------------------------------------------------|
------------------------------------------12----12--15-12----14-|
-14b-12---12-------------------14b-12--14b---14b----------14----|
--------14--14-12------12-14------------------------------------|
------------------12-14-----------------------------------------|
----------------------------------------------------------------|

-12--12---------------12-------15-12---12-----------------------------|
-15b-15b--15-12----------------------14--14-12---12-------------------|
----------------14-12----14b-------------------14---14-12-14-12-------|
----------------------------------------------------------------14-12-|
----------------------------------------------------------------------|
----------------------------------------------------------------------|

i'm hungry...
--------------------------------------------|
--------------------------------------------|
-5-7----------------------------------------|
-5-7----------------------------------------|
-3-5--3-4-5---------------------------------|
------------3-------------------------------|

guitar solo
--------------------------------------------------------------------------|
--------------------------12--------------------------------15-14-12--12--|
----------7-9-9-14b-14--14--14-12--12-------------------------------12----|
----5-7-9------------------------14--14-12-14--14p12-14-14b---------------|
--7-----------------------------------------------------------------------|
--------------------------------------------------------------------------|

---------------------------------------------------------------------------|
---------------------------------------------12---14b12--------------------|
--14-12-------12------------------------12-14--14-------15-14--------------|
--------14--14---14-12------------12-14------------------------------------|
-----------------------14----12-14-----------------------------------------|
---------------------------------------------------------------------------|

rhythm guitar:
------------------------------------------|
----3--3-3-3------------------------------|
-2--2--2-2-2------------------------------|
-2--0--0-0-0------------------------------|
-0----------------------------------------|
------------------------------------------|

lead guitar:
-------------------------------------------|
-----------------12------------------------|
--------------14-----14-12-14-12-----------|
-------------------------------------------|
-------------------------------------------|
-------------------------------------------|

rhythm guitar:
------------------------------------------|
----3--3-3-3------------------------------|
-2--2--2-2-2------------------------------|
-2--0--0-0-0------------------------------|
-0----------------------------------------|
------------------------------------------|

lead guitar:
---------------------------------15-------------------------|
----------------12----12--14-14b----12--12-10-10-8----------|
-------------14b---14b------------------------------12-10---|
------------------------------------------------------------|
------------------------------------------------------------|
------------------------------------------------------------|

--15---------------------------------------------------------|
-----12---12-------------------------------------------------|
--------14---14-12----12----------12-------------------------|
--------------------14---14-12-14----------------------------|
-------------------------------------------------------------|
-------------------------------------------------------------|

Something soft and tender... how 'bout you?
-----------------------------------------|
-----------------------------------------|
--9-----7-7------------------------------|
--9-----7-7-7----------------------------|
--7-----5-5-7----------------------------|
------------5----------------------------|

i'm hungry...
--------------------------------------------|
--------------------------------------------|
-5-7----------------------------------------|
-5-7----------------------------------------|
-3-5--3-4-5---------------------------------|
------------3-------------------------------|

woo woo woo...
---------------------------------------------|
-------5--------4-------3--------2-----------|
-----5--------4-------3--------2-------------|
---5--------4-------3--------2---------------|
-7--------6-------5--------4-----------------|
---------------------------------------------|
Добавлено: 19.05.2012
Другие материалы по этой песне:
  • Аккорды и текст

Страница создана 19.05.2012
http://primanota.ru/alice-cooper/im-hungry-chords.htm
Привет, Гость.
Предлагаем пройти революционный курс по гитаре.
Подарок от PrimaNota.Ru, забирай!