PrimaNota.ru - самый крупный в мире бесплатный архив песенных текстов, аккордов, табулатур и нот


Alexandre Desplat - Obliviate - таба, видео

Регистрация Запомнить меня
Войти через:  Facebook Google Twitter Vk Yandex Mail.ru

Alexandre Desplat - Obliviate - таба, видео

Печатать
Просмотров: 162
Уроки эстрадного вокала в Санкт-Петербурге
Авторы музыки: Alexandre Desplat

Note: This is an improvement on a previous tab submitted to the website, which I have altered to improve 
ease of play. The bracketed notes indicate bass notes which are still near-impossible stretches, yet have
been included for completeness.


E|5---------------5---------------5---------------5-------------0-|
B|------------------------------------------------------------3---|
G|2-0-2-0-2-0-2-0-2-0-2-0-2-0-2-0-2-0-2-0-2-0-2-0-2-0-2-0-2-0-2-0-|
D|0-------0-------0-------0-------0-------0-------0-------0-------|
A|----------------------------------------------------------------|
E|----------------------------------------------------------------|


E|0-------1-------5---------------5-------------0-0-------6-|
B|--------------------------------------------3-------------|
G|2-0-2-0-2-0-2-0-2-0-2-0-2-0-2-0-2-0-2-0-2-0-2-0-3-2-3-2-3-|
D|0-------0-------0-------0-------0-------0-------0-------0-|
A|----------------------------------------------------------|
E|----------------------------------------------------------|


E|----------------------5---5---------0-0-------1---------|
B|----------------------------------3---------------------|
G|2-3-2-3-2-3-2-3-2-3-2-2-0-2-0-2-0-2-0-2-0-2-0-2-0-------|
D|------0-------0-------0-------0-------0-------0---3-2---|
A|------------------------------------------------------0-|
E|--------------------------------------------------------|


E|--0---7---8----10---8---7---0----5----------------3---------------|
B|------0-------------------------------------------------------3---|
G|--2-----------------0---4---0-------------2-----------4-0-4-0-4-0-|
D|2---2-----7-------0---0---0---0-------3-------3-----0-------------|
A|--------7---7-----------------------0---0---0---0-----------------|
E|--------------(3)---------------(1)---------------3---------------|


E|--------0-------------------0---0-------------------------------|
B|3---------------------------------------3-----------------------|
G|4-0-4-0-4-0-4-0-4-0-4-0-4-0-4-0-2-0-2-0-2-0-2-0-2-0-2-0-2-0-2-0-|
D|2-------2-------2-------2-------0-------0-------0-------0-------|
A|----------------------------------------------------------------|
E|----------------------------------------------------------------|


E|5---5---------0-0-------1-------------------1-3-3-------5-------|
B|------------3-------------------------------3-5-5-------6-------|
G|2-0-2-0-2-0-2-0-2-0-2-0-2-0-2-0-2-0-2-0-2-0-2-0-2-0-2-0-2-0-----|
D|0-------0-------0-------0-------0-------0-------0-------0-------|
A|------------------------------------------------------------8-7-|
E|----------------------------------------------------------------|


E|----0---7---8----10---8---7---0----5----------------3---------------|
B|----------------------0---0---0-----------------------------0-------|
G|----5---5---5---------0---0---0---------2---2---2-------0-2---2-0---|
D|----7---7---7-------0---0---0---0-------3---3---3-----0-----------0-|
A|--7---7---7---7-----------------------0---0---0---0-----------------|
E|5---------------(3)---------------(1)---------------3---------------|


E|----8---11--13----15----11----10----8----8--------8---13-----------8-----13-|
B|----------------------------------------------------------------------------|
G|--0-5-0-8-0----0--12----13----------5----5------0-5-0-10-----------------10-|
D|------------10----------------12----6-------------6------13--10----10-------|
A|3-----------------------11----13------6-------8--------------------11---(1)-|
E|-----------------(4)-11----11----11-----(1)-8---------13----(4)-11----11----|


E|--11---15----11-----13---15-----------0-----0-3-5-----1---1-0---|
B|------------------------------------0-----0---------1---1-----1-|
G|--8----12----13-----10---12----12-0-----0-----0---2-----2-------|
D|--8---------------------------------------------3---------------|
A|8---8--------11----(1)---13-------------------------------------|
E|------(4)-11----11----13----13-12-------------------------------|


E|------0----------------1-0---0-------------------|
B|0---0---0--0-0-1-1---1-----1-1-3-3---3---3---3---|
G|--0-----7----0-----2-------------5---5---5---5---|
D|2----------------3---------------5-5-5-5-5-5-5-5-|
A|--------10-----------------------3---6---3---6---|
E|-------------------------------------------------|


E|----------------5---------------5---5-----------5---5--------------|
B|3---3---3---3---3---------------3---3-----------3---3--------------|
G|1---1---1---1---2-0-2-0-2-0-2-0-2-0-2-0-2-0-2-0-2-0-2-0-2-0-2-0----|
D|1-1-1-1-1-1-1-1-0-------0-------0-------0-------0-------0-------00-|
A|-------------------------------------------------------------------|
E|-------------------------------------------------------------------|
Добавлено: 24.11.2015
Другие материалы по этой песне:

Страница создана 22.10.2013
http://primanota.ru/alexandre-desplat/obliviate-chords.htm
Привет, Гость.
Предлагаем пройти революционный курс по гитаре.
Подарок от PrimaNota.Ru, забирай!