PrimaNota.ru - самый крупный в мире бесплатный архив песенных текстов, аккордов, табулатур и нот


Alex Ubago - Salida - текст песни, таба, видео

Регистрация Запомнить меня
Войти через:  Facebook Google Twitter Vk Yandex Mail.ru

Alex Ubago - Salida - текст песни, таба, видео

Печатать
Просмотров: 217
SALIDA DEL DVD EN VIVO DE ALEX UBAGO
LAS PARTES TABULADAS DE GUITARRA ELECTRICA Y ACUSTICA
SON SIMULTANEAS..


INTRO 

GUITARRA ELECTRICA
e|-5-5-5-5-3--0-5-5-5-5-7----0-|---2-5-3-0----10-14-17-19-|
B|-----------3------------8----|-3---------1-----------20-|
G|--------------------------7--|--------------------------|
D|-----------------------------|--------------------------|
A|--------------------------------------------------------|
E|--------------------------------------------------------|

GUITARRA ACUSTICA
    G    C    G    C    Bm   C    Bm   C  
e|--3333------3333------2222------2222------|
B|--3333-1111-3333-1111-3333-1111-3333-1111-|
G|--0000-0000-0000-0000-4444-0000-4444-0000-|
D|--0000-2222-0000-2222-4444-2222-4444-2222-|
A|--2222-3333-2222-3333-2222-3333-2222-3333-|
E|--3333------3333--------------------------|

VERSO 1 
        G        C            G         C
Yo no podía imaginarte estando fuera de mi vida
   Bm        C        Bm          C
ni podía imaginarme una noche sin tu risa
        G        C          G         C
Yo no quería separarme ni un minuto de tus labios
   Bm        C        Bm          C
y podía pasearme por el mundo de tu mano
      Am          Bm          C              D
Yo no quise hacerte daño pero el tiempo me ha engañado
     Am       Bm        C 
y mi vida va cambiando y cambiando...ohhhhhh

CORO 1
	          Em         C     G
Pero a quién le importa, si la vida es corta
	      Em         C          G
Y a quién le importa, si tú pronto serás otra
      Em      C         Em       C   
Yo no podía imaginarte estando fuera de mi vida
        Am           Bm        C
y ahora tengo que encontrar yo la salida...


GUITARRA ELECTRICA
e|-5-5-5-5-3--0-5-5-5-5-7----0-|---2-5-3-0----10-14-17-19-|
B|-----------3------------8----|-3---------1-----------20-|
G|--------------------------7--|--------------------------|
D|-----------------------------|--------------------------|
A|--------------------------------------------------------|
E|--------------------------------------------------------|

GUITARRA ACUSTICA
    G    C    G    C    Bm   C     Bm  C
e|--3333------3333------2222------2222------|
B|--3333-1111-3333-1111-3333-1111-3333-1111-|
G|--0000-0000-0000-0000-4444-0000-4444-0000-|
D|--0000-2222-0000-2222-4444-2222-4444-2222-|
A|--2222-3333-2222-3333-2222-3333-2222-3333-|
E|--3333------3333--------------------------|

VERSO 2 

     G            C          G         C
Hace tiempo que no hablamos de lo que esto significa
   Bm            C            Bm      C
para mí no es algo vano pienso en ello cada día
       G          C         G          C
Y me dejaba tantas cosas por decirte aquella noche
        Bm     C         Bm       C
en que decidí dejarte y perderte para siempre

     Am          Bm          C                D
Yo no quise hacerte daño pero el tiempo me ha engañado
       Am        Bm      C 
y mi vida va cambiando y cambiando...


CORO 2
	          Em         C     G
Pero a quién le importa, si la vida es corta
	      Em         C          G
Y a quién le importa, si tú pronto serás otra
      Em      C            Em       C
Yo no podía imaginarte estando fuera de mi vida,
        Am           Bm        C
y ahora tengo que encontrar yo la salida..

CORO 3

GUITARRA ACUSTICA
	          Em         C     G
Pero a quién le importa, si la vida es corta
	      Em         C          G
Y a quién le importa, si tú pronto serás otra
      Em      C            Em       C
Yo no podía imaginarte estando fuera de mi vida,
        Am           Bm        C
y ahora tengo que encontrar yo la salida..

CORO  3

GUITARRA ELECTRICA 

  Yo no podia imaginarte
e|----------------------|-10-15-12-10-----|
B|----------------------|-----------------|
G|----------------------|-----------------|
D|----------------------|-----------------|
A|----------------------|-----------------|
E|----------------------|-----------------|
 estando fuera de mi vida
e|----------------------|-10-15-12-10-----|
B|----------------------|-----------------|
G|----------------------|-----------------|
D|----------------------|-----------------|
A|----------------------|-----------------|
E|----------------------|-----------------|

 y ahora tengo que buscar yo la salida
e|---10-------0---------|---------10^-10^-10^-10^-10^-10^|
B|-12---12------12------|-10-12-12-----------------------|
G|---------12-----------|--------------------------------|
D|----------------------|--------------------------------|
A|----------------------|--------------------------------|
E|----------------------|--------------------------------|


SOLO

GUITARRA ACUSTICA
    G    C    G    C    Bm   C    Bm   C
e|--3333------3333------2222------2222------|
B|--3333-1111-3333-1111-3333-1111-3333-1111-|
G|--0000-0000-0000-0000-4444-0000-4444-0000-|
D|--0000-2222-0000-2222-4444-2222-4444-2222-|
A|--2222-3333-2222-3333-2222-3333-2222-3333-|
E|--3333------3333--------------------------|

GUITARRA ELECTRICA

e|-------------------|----------------|-------3-5-7-5-|
B|-------------------|-0--0-1-2-3-0---|---0-3---------|
G|----------------4--|--------------2-|-0-------------|
D|--------5-7-5-7---5|----------------|---------------|
A|--7-5-7------------|----------------|---------------|
E|-------------------|----------------|---------------|


e|-7-8-9-10-7-5-3--0|-10-12-11-10---12-----------|-----------15-|
B|----------------3-|-------------12--12-10----10|--8-10-8------|
G|------------------|-----------------------12---|-9-------9----|
D|------------------|----------------------------|--------------|
A|------------------|----------------------------|--------------|
E|------------------|----------------------------|--------------|

ACUSTICA (PUNTEADA)

       G          C         G          C
Y me dejaba tantas cosas por decirte aquella noche
        Bm     C         Bm       C
en que decidí dejarte y perderte para siempre


ACUSTICA(RASGUEADA)

     Em      C            Em       C
Yo no podía imaginarte estando fuera de mi vida,
        Am           Bm        C
y ahora tengo que encontrar yo la salida..


GUITARRA ELECTRICA
e|-5-5-5-5-3--0-5-5-5-5-7----0-|---2-5-3-0----10-14-17-19-|
B|-----------3------------8----|-3---------1-----------20-|
G|--------------------------7--|--------------------------|
D|-----------------------------|--------------------------|
A|--------------------------------------------------------|
E|--------------------------------------------------------|

GUITARRA ACUSTICA
    G    C    G    C    Bm   C    Bm   C
e|--3333------3333------2222------2222------|
B|--3333-1111-3333-1111-3333-1111-3333-1111-|
G|--0000-0000-0000-0000-4444-0000-4444-0000-|
D|--0000-2222-0000-2222-4444-2222-4444-2222-|
A|--2222-3333-2222-3333-2222-3333-2222-3333-|
E|--3333------3333--------------------------|

                             -FIN-
			
YO LA TOCO CON LA ELECTRICA USANDO EL WAH-WAH
PERO ES CUESTION DE GUSTOS...
SALUDOS A LA GENTE DE VENEZUELA
CUALQUIER DUDA O PETICION HARD248@HOTMAIL.COM
Добавлено: 30.04.2012
Другие материалы по этой песне:
  • Аккорды и текст

Страница создана 30.04.2012
http://primanota.ru/alex-ubago/salida-chords.htm
Привет, Гость.
Предлагаем пройти революционный курс по гитаре.
Подарок от PrimaNota.Ru, забирай!