PrimaNota.ru - самый крупный в мире бесплатный архив песенных текстов, аккордов, табулатур и нот


Alesana - Beautifull In Blue - бас-таба, видео

Регистрация Запомнить меня
Войти через:  Facebook Google Twitter Vk Yandex Mail.ru

Alesana - Beautifull In Blue - бас-таба, видео

Печатать
Просмотров: 143
++++++++++++++++++++++++++++++
| Alesana- Beautiful In Blue |
++++++++++++++++++++++++++++++

EADG

"Silence Screams.."
1.
G|---------------------------------|
D|---------------------------------|
A|-222x-222x-----------------------|
E|-----------555x-555x-333x-333x---|

"Escaaape, "
2.
G|-----------|
D|-----------|
A|-----------|
E|-555555555x|

"Are you blind to my.."
3.
G|----------------------------------|
D|----------------------------------|
A|-2-2-222x-------------------------|
E|--------------5-5-555x----3-3-333x|

"Your last breath..."
4.
G|---------------------------------|
D|---------------------------------|
A|---------------------------------|
E|-5-5-55-5-5-55-5-5-55-5-5-5-------|

"This will all be over soon.."
5.
G|---------------------------------|
D|---------------------------------|
A|-2222222222222222222222----------|
E|---------------------------------|

"Glazed eyes, long for.."
6.
G|---------------------------------|
D|---------------------------------|
A|----7x----5x---77---55-----------|
E|-555---333---55---33-------------|

"For you are so lost inside.."
7.
G|---------------------------------|
D|---------------------------------|
A|---------------------------------|
E|-3333333333333333333333----------|

"Drawn to, an end.."
8.
G|---------------------------------|
D|---------------------------------|
A|----7x----5x---77----------------|
E|-555---333---55---5-2~-----------|

"Far awaaaaaaaaaay..."
9.
G|---------------------------------|
D|---------------------------------|
A|-2-222222222222222222------------|
E|---------------------2~-2~-2~-2~-|

"My voice, why are you.."
10.
G|------------------------|
D|------------------------|
A|------------------------|
E|-3-333333333333333333---|

"My love, I can't find the words to tell you.."
11.
G|---------------------------------|
D|---------------------------------|
A|---------------------------------|
E|-5-55555555555555555555555555----|

Outro.
12.
G|-----------------|
D|-----------------|
A|-22x-22x---------|
E|---------55x-33x-|

"Drown all of your fantasies.."
13.
G|---------------------------------|
D|---------------------------------|
A|-2222222222222222222222----------|
E|---------------------------------|

"Silent angel, crashes.."
14.
G|---------------------------------|
D|---------------------------------|
A|----7x----5x---77---55-----------|
E|-555---333---55---33-------------|

"With your final broken promise.."
15.
G|---------------------------------|
D|---------------------------------|
A|---------------------------------|
E|-3333333333333333333333----------|

"Having lost sight of the stars.."
16.
G|---------------------------------|
D|---------------------------------|
A|----7x----5x---77---55-----------|
E|-555---333---55---33-------------|

"Regail me with your.."
17.
G|---------------------------------|
D|---------------------------------|
A|-22-22x--22-22x------------------|
E|----------------55-55x--55-55x---|

"I'll walk away so you can.."
18.
G|---------------------------------|
D|---------------------------------|
A|---------------------------------|
E|-33-33x--33-33x-555555-55-5-5~---|

"Far Awaaaay.."
19.
G|---------------------------------|
D|---------------------------------|
A|-2-222222222222222222------------|
E|---------------------2~-2~-2~-2~-|

"My voice, why are you.."
20.
G|------------------------|
D|------------------------|
A|------------------------|
E|-3-333333333333333333---|

"My love, I can't find the words to tell you.."
21.
G|---------------------------------|
D|---------------------------------|
A|---------------------------------|
E|-5-55555555555555555555555555----|

Outro.
22.
G|-----------------|
D|-----------------|
A|-22x-22x---------|
E|---------55x-33x-|

"The.. Fear..."
23.
G|------------------------------------|
D|------------------------------------|
A|------------------------------------|
E|-0000000x-0000000x-3333333x-3333333x|

24.
G|------------------------------------------------|
D|------------------------------------------------|
A|-5-5-5-5-5-5-5-5-5-5-5-5------------------------|
E|-------------------------5-5-5-5-5-5-5-5-5-5-5-5|

25.
G|------------------------------------------------|
D|------------------------------------------------|
A|------------------------------------------------|
E|-3-3-3-3-3-3-3-3-3-3-3-3-5-5-5-5-5-5-5-5-5-5-5-5|

This is the soft part where he says "She wakes from her dream"

26.
G|-------------------------------|
D|-------------------------------|
A|-----------------5~----5h7-----|
E|-0-1-2-3~----3-5-----------5~--|

"Treacherous.." x4
27.
G|-------------------|
D|-------------------|
A|-------------------|
E|-2222222222x-------|

"Far awaaay..."
28.
G|---------------------------------|
D|---------------------------------|
A|-2-222222222222222222------------|
E|---------------------2~-2~-2~-2~-|

"My voice, why are you.."
29.
G|------------------------|
D|------------------------|
A|------------------------|
E|-3-333333333333333333---|

"My love, I can't find the words to tell you.."
30.
G|---------------------------------|
D|---------------------------------|
A|---------------------------------|
E|-5-55555555555555555555555555----|

"Far awaaay.."
31.
G|--------------------------------------------------------|
D|--------------------------------------------------------|
A|-2-222222222222222222-----------------------------------|
E|---------------------2~-2~-2~-2~-3~-3~-3~-3~-5~-5~-5~-5~|

Outro.
32.
G|---------------------------------|
D|-------------54x-----------------|
A|-22x-22x-22x---------------------|
E|---------------------------------|

Lyrics:

Silence screams, "you're just so beautiful in blue"
Breathless stares escape your undying eyes
Are you blind to my sorrow and sympathy?
A piece of me will die with your last breath...
This will all be over soon for you are so lost inside
Glazed eyes long for the waves' embrace
Drawn to an end so near...

Far away are days when you smiled just to hear my voice
why are you trying to run away?
my love, I can't find the words to tell you...

Drown all of your fantasies with your final broken promise
silent angel crashes through sky, having lost sight of the stars

regail me with your tales of lonely, bittersweet loss
giving up comes to easy when hope is gone
I'll walk away so you can choke on your dying breath
but if you side against me, to hell with you...

The fear has stolen her heart as she wakes from her dream
treacherous ink finds her lungs, seizing her screams
numb hands now reach too late to take back the light

Far away are days when you smiled just to hear my voice
why are you trying to run away?
my love, I can't find the words to tell you...
far away are days when you smiled...
seas cry out butchering this tragic soul without hope
their frailty is broken and now fades into the blue...
__

That's it
Good Luck!

+++++++++++++++++++++++++++++++++
| RaiLeff                       |
| Underground__Dora@hotmail.com |
+++++++++++++++++++++++++++++++++
Добавлено: 11.09.2013
Другие материалы по этой песне:
  • Аккорды и текст

Страница создана 11.09.2013
http://primanota.ru/alesana/beautifull-in-blue-chords.htm
Привет, Гость.
Предлагаем пройти революционный курс по гитаре.
Подарок от PrimaNota.Ru, забирай!