PrimaNota.ru - самый крупный в мире бесплатный архив песенных текстов, аккордов, табулатур и нот


Akira Yamaoka - The Terminal Show - таба, видео

Регистрация Запомнить меня
Войти через:  Facebook Google Twitter Vk Yandex Mail.ru

Akira Yamaoka - The Terminal Show - таба, видео

Печатать
Просмотров: 92
Author/Artist: Akira Yamaoka
Title: The Terminal Show
Album: Silent Hill: Homecoming Original Soundtrack
Transcribed by: Peter Andrew Walsh
Email: kite892@gmail.com

Originally played by piano this is a simple and beautifully haunting piece by the legend Akira Yamaoka.
There are a couple different ways to play this piece and it is easier with two guitars to split up the load. But
if you're a solo player and want kick back with your guitar and sprinkle these tunes for a somber moonlit night
then try this composition. Remember to hold the notes and really draw out the melancholic feels. The barring is
pretty heavy so your hands might cramp up the first few times until you get the hang of it. 

0:00-0:54
e|-------------------------|[repeat x4]
b|---------4-3-------------|
g|--------5-------3--------|
D|-----5-------------5-----|
A|--3----------------------|
E|-------------------------|

0:00-0:54       [repeat x3]            (End with this bit)
e|----------11-10---------| |----------11-10---------11-8|
b|---------8-------11--8--| |---------8-------11-8-11----|
g|--------8---------------| |--------8-------------------|
D|------------------------| |----------------------------|
A|-----10-----------------| |-----10---------------------|
E|--8---------------------| |--8-------------------------|

:00-0:54                             [repeat x3]        (End with this bit)
e|------------------11-10-----------------11-8-| |------------------11-10-|
b|--------------8-11------------------8-11-----| |--------------8-11------|
g|---------8--------------------7--------------| |---------8--------------|
D|--------10--------------------10-------------| |--------10--------------|
A|-----10--------------------10----------------| |-----10-----------------|
E|--8---------------------8--------------------| |--8---------------------|

bridge
0:00-0:54
e|------------------------------------------------------------------|
b|------------------------------------------------------------------|
g|--5-5-5-5-5-5-5-5-5-5-5-5-5-5-5-5-5-5-5-5-5-5-5-5-5-5-5-5-5-5-5-5-|
D|--5-5-5-5-5-5-5-5-5-5-5-5-5-5-5-5-5-5-5-5-5-5-5-5-5-5-5-5-5-5-5-5-|
A|--3-3-3-3-3-3-3-3-----------------3-3-3-3-3-3-3-3-----------------|
E|------------------6-6-6-6-6-6-6-6-----------------6-6-6-6-5-5-5-5-|

Short pause then drums join in and entire segment repeats and ends without the bridge.

Cheers!
Добавлено: 31.03.2016
Другие материалы по этой песне:
  • Аккорды и текст

Страница создана 31.03.2016
http://primanota.ru/akira-yamaoka/terminal-show-chords.htm
Привет, Гость.
Предлагаем пройти революционный курс по гитаре.
Подарок от PrimaNota.Ru, забирай!