PrimaNota.ru - самый крупный в мире бесплатный архив песенных текстов, аккордов, табулатур и нот


Akira Yamaoka - Tender Sugar - текст песни, таба, видео

Регистрация Запомнить меня
Войти через:  Facebook Google Twitter Vk Yandex Mail.ru

Akira Yamaoka - Tender Sugar - текст песни, таба, видео

Печатать
Просмотров: 146
Akira Yamaoka - Tender Sugar (featuring Mary Elizabeth McGlynn)
Track 1 from the "Silent Hill 4: The Room" original soundtracks (2004 Konami).

Tabbed by Isaac Murguia, December 2015.
Originally uploaded to Ultimate-Guitar.com
Contact: www.youtube.com/user/Goadiroth

E-flat Standard Tuning (half-step down).

INTRO: [x2]
eb|-------------------------------------------------|
Bb|-------------------------------------------------|
Gb|-------------------------------------------------|
Db|-----2-----2-----2-----2-----4-----4-----4-----4-|
Ab|---2-----2-----2-----2-----2-----2-----2-----2---|
Eb|-0-----0-----0-----0-----0-----0-----0-----0-----|

eb|-------------------------------------------------|
Bb|-------------------------------------------------|
Gb|-------------------------------------------------|
Db|-----5-----5-----5-----5-----4-----4-----4-----4-|
Ab|---2-----2-----2-----2-----2-----2-----2-----2---|
Eb|-0-----0-----0-----0-----0-----0-----0-----0-----|

VERSE 1:
   Lead
eb|-------------------------------------|
Bb|----8------7-------5-----------5-----|
Gb|-9------9--------7---7-------7---7---|
Db|---------------5-------5---5---------|
Ab|-------------------------------------|
Eb|-------------------------------------| [x4]
   Rhythm (same as INTRO)

VERSE 2:
   Lead
eb|----------------------------|
Bb|-----7-------5-----7--------|
Gb|---7---7---7---4-----4h6-6--|
Db|-4-------4-------4----------|
Ab|----------------------------|
Eb|----------------------------| [x4]
   Rhythm
eb|---------------------------------------------------------|
Bb|---------------------------------------------------------|
Gb|---------------------------------------------------------|
Db|-----0-------0-------0-------0-------7-----7-----7-----7-|
Ab|---9---9---9---9---9---9---9---9---7-----7-----7-----7---|
Eb|-7-------7-------7-------7-------5-----5-----5-----5-----| [x4]

PRE-CHORUS:
eb|-2-----2-----2-----2---|
Bb|-2-----2-----2-----2---|
Gb|-3-----3-----3-----3---|
Db|-4---x-4---x-4---x-4---|
Ab|-4---x-4---x-4---x-4---|
Eb|-2---x-2---x-2---x-2---| [x2]

CHORUS:
eb|-----0--------0-----------------------------|
Bb|-----0--------0-----------------------------|
Gb|-----0--------0---------0-----0-----0-----0-|
Db|-2-2-2--222-2-2-2-----4-----4-----4-----4---|
Ab|-2-2-2--222-2-2-2---5-----5-----5-----5-----|
Eb|-0-0-0--000-0-0-0---------------------------| [x4]

POST-CHORUS:
eb|--------------------------------------------------|
Bb|--------------------------------------------------|
Gb|--------0--------0--------0--------0--------0-----|
Db|---2--------2--------2--------2--------2--------2-|
Ab|-3----3---3----3---3----3---3----3---3----3---3---|
Eb|--------------------------------------------------|

BEFORE SOLO:
eb|-------------------------------------------------|
Bb|-------------------------------------------------|
Gb|-------------------------------------------------|
Db|-----2-----2-----2-----2-----2-----2-----2-----2-|
Ab|---2-----2-----2-----2-----2-----2-----2-----2---|
Eb|-0-----0-----0-----0-----0-----0-----0-----0-----| [x2]

GUITAR SOLO A:
eb|---------------------------------------------------|
Bb|---------------------------------------------------|
Gb|-/11-12--9~~--11-12-9~---11-12---9-11-12---9-11-12-|
Db|---------------------------------------------------|
Ab|---------------------------------------------------|
Eb|---------------------------------------------------|

eb|--------------------------------------------------------------|
Bb|-9/12~~--12/15~--15~~--15/17~--17~~--17/20-20-20-19-19-19-19\-|
Gb|--------------------------------------------------------------|
Db|--------------------------------------------------------------|
Ab|--------------------------------------------------------------|
Eb|--------------------------------------------------------------|

eb|-----15--14---------15--14---------15--14---------15--14-----|
Bb|-/12--------12~--12--------12~--12--------12~--12--------12~-|
Gb|-------------------------------------------------------------|
Db|-------------------------------------------------------------|
Ab|-------------------------------------------------------------|
Eb|-------------------------------------------------------------|

eb|----15--14------14-15-15/17-17--17/19-19--19/22-22--22/24-24-24-24-24~-|
Bb|-12--------12~---------------------------------------------------------|
Gb|-----------------------------------------------------------------------|
Db|-----------------------------------------------------------------------|
Ab|-----------------------------------------------------------------------|
Eb|-----------------------------------------------------------------------|

GUITAR SOLO B:
              [x2]                              [x2]
eb|-777------777--------------|-101010--------101010--------1010----|
Bb|-777-8----777-8----7-8---7-|-101010-12--12-101010-12--12-1010-12-|
Gb|--------9--------9-----9---|-------------------------------------|
Db|---------------------------|-------------------------------------|
Ab|---------------------------|-------------------------------------|
Eb|---------------------------|-------------------------------------|
                 [x2]
eb|-15151517--1515151517--1515151517-|
Bb|-15151515--1515151515--1515151515-|
Gb|----------------------------------|
Db|----------------------------------|
Ab|----------------------------------|
Eb|----------------------------------|

eb|----19-----17-----19-----17-----19-----17-|----19-----17-----19-----17----19\-|
Bb|-17-----17-----17-----17-----17-----17----|-17-----17-----17-----17----17-----|
Gb|------------------------------------------|-----------------------------------|
Db|------------------------------------------|-----------------------------------|
Ab|------------------------------------------|-----------------------------------|
Eb|------------------------------------------|-----------------------------------|

Repeat PRE-CHORUS
Repeat CHORUS

POST-CHORUS VARIATION:
eb|-------------------------------------------------|
Bb|-------------------------------------------------|
Gb|-----0-----0-----0-----0-----0-----0-----0-----0-|
Db|---2-----2-----2-----2-----2-----2-----2-----2---|
Ab|-3-----3-----3-----3-----3-----3-----3-----3-----|
Eb|-------------------------------------------------|

Repeat INTRO

END NOTE:
eb|---------|
Bb|---------|
Gb|---------|
Db|---------|
Ab|-2-------|
Eb|---------|

End. Please rate! :D
Добавлено: 31.03.2016
Другие материалы по этой песне:

Страница создана 05.07.2012
http://primanota.ru/akira-yamaoka/tender-sugar-chords.htm
Привет, Гость.
Предлагаем пройти революционный курс по гитаре.
Подарок от PrimaNota.Ru, забирай!