PrimaNota.ru - самый крупный в мире бесплатный архив песенных текстов, аккордов, табулатур и нот


Agnostic Front - United Blood - текст песни, бас-таба, видео

Регистрация Запомнить меня
Войти через:  Facebook Google Twitter Vk Yandex Mail.ru

Agnostic Front - United Blood - текст песни, бас-таба, видео

Печатать
Просмотров: 47
Авторы музыки: Vinnie Stigma
Авторы текста: Vinnie Stigma
Song: United Blood
Artist: Agnostic Front
Album: United Blood EP
Genre: Hardcore Punk
Year: 1983

Hey guys! This is the bass tab of the song... a great Skinhead theme (yes: I said "Skinhead", not
"Neo-Nazi" shit; true Skinheads are anti-racist and anti-fascist, and they're -we're- proud 
to be part of the Working Class)! This is 100% correct.
Anyway, enjoy the Agnostic Front!

Verse:

G:------------------------------    --------------------
D:------------------------------    --------------------
A:-----------------1------1-----    ----------------1---
E:---0-000000-3333------1---1---x5  ---0-000000-33------x1

Chorus (play it fast):

G:---------------------
D:---------------------
A:---555-333-555-3-3---
E:---------------------

Post-Chorus;
G:-------------------
D:-------------------
A:---7--5-3--5-3-5---
E:-------------------

The order is:
.Verse x1
.Chorus x4
.Post-Chorus x2
.Chorus x4
.Post-Chorus x2
.Verse x1
.Chorus x1



Tab by: mdc_ivan
Добавлено: 27.05.2016
Другие материалы по этой песне:
  • Аккорды и текст

Страница создана 24.03.2012
http://primanota.ru/agnostic-front/united-blood-chords.htm
Привет, Гость.
Предлагаем пройти революционный курс по гитаре.
Подарок от PrimaNota.Ru, забирай!