PrimaNota.ru - самый крупный в мире бесплатный архив песенных текстов, аккордов, табулатур и нот


Agnostic Front - Blinded - текст песни, таба, видео

Регистрация Запомнить меня
Войти через:  Facebook Google Twitter Vk Yandex Mail.ru

Agnostic Front - Blinded - текст песни, таба, видео

Печатать
Просмотров: 260
   
*** Blinded by Agnostic Front (Album: Something's Gotta Give) ***

*** Tabbed by Guare (guare_skt@hotmail.com) ***

Standard Tuning (E,A,D,G,B,E)

Note: I can play this song properly, so, it's a very easy one since I'm the worst
guitar player ever. Just listen to the song to get the perfect timing. Keep the
hard-core alive and fast! This is my first tab. If I made some mistake when tabbing
this song, fell free to fix it with or without my permission. I really dont care that
much...

***



Bass Intro 
--------------------------|--------------------------|
--------------------------|--------------------------|
--------------------------|--------------------------|
--------------------------|--------------------------|
--------------------------|--------------------------|
--5--5--5--5--5--5--5--5--|--8--8--8--6--6--6--3--3--|



Guitar - Let it ring
-----------|
-----------|
-----------|
--7--------|
--7--------|
--5--------|



Prelude to the main riff... 
-----------------------------|
-----------------------------|
-----------------------------|
--10--10--10--8--8--8--5--5--|
--10--10--10--8--8--8--5--5--|
--8---8---8---6--6--6--3--3--|




And this is the main riff!                                                      
--------------------------|--------------------------|--------------------------|-----------------------------|
--------------------------|--------------------------|--------------------------|-----------------------------|
--------------------------|--------------------------|--------------------------|-----------------------------|  4x
--7--7--7--7--7--7--7--7--|--8--8--8--5--5--5--5--5--|--7--7--7--7--7--7--7--7--|--10--10--10--8--8--8--5--5--|
--7--7--7--7--7--7--7--7--|--8--8--8--5--5--5--5--5--|--7--7--7--7--7--7--7--7--|--10--10--10--8--8--8--5--5--|
--5--5--5--5--5--5--5--5--|--6--6--6--3--3--3--3--3--|--5--5--5--5--5--5--5--5--|--8---8---8---6--6--6--3--3--|



Chorus or whatever..
----------------------------------|-------------------------------------------|
----------------------------------|-------------------------------------------|   
--7-7-7-7-7-7-7-7-7-7-7-7-7-7-7-7-|--10-10-10-10-10-10-10-10-8-8-8-8-8-10--8--|
--7-7-7-7-7-7-7-7-7-7-7-7-7-7-7-7-|--10-10-10-10-10-10-10-10-8-8-8-8-8-10--8--|  4x
--5-5-5-5-5-5-5-5-5-5-5-5-5-5-5-5-|--8--8--8--8--8--8--8--8--6-6-6-6-6-8---6--|
----------------------------------|-------------------------------------------|



Chorus ending
----------------------------------|----------------------------------------|
----------------------------------|----------------------------------------|
--7-7-7-7-7-7-7-7-7-7-7-7-7-7-7-7-|--10-10-10-10-10-10-10-10-8-8-8-8--8-8--|
--7-7-7-7-7-7-7-7-7-7-7-7-7-7-7-7-|--10-10-10-10-10-10-10-10-8-8-8-8--8-8--|
--5-5-5-5-5-5-5-5-5-5-5-5-5-5-5-5-|--8--8--8--8--8--8--8--8--6-6-6-6--6-6--|
----------------------------------|----------------------------------------|


                                                                            
----------------------------------|--------------------------------------------------|
----------------------------------|--------------------------------------------------|
--7-7-7-7-7-7-7-7-7-7-7-7-7-7-7-7-|--10-10-10-10-10-10-10-10-10-10-10-10-10-10-10-10-|
--7-7-7-7-7-7-7-7-7-7-7-7-7-7-7-7-|--10-10-10-10-10-10-10-10-10-10-10-10-10-10-10-10-|
--5-5-5-5-5-5-5-5-5-5-5-5-5-5-5-5-|--8--8--8--8--8--8--8--8--8--8--8--8--8--8--8--8--|
----------------------------------|--------------------------------------------------|


Repeat the main riff 4x

Repeat the chorus 4x

Repeat the chorus ending



Outro... Play it until the song ends..
----------------------------------|------------------------------|
----------------------------------|------------------------------|
--7-7-7-7-7-7-7-7-7-7-7-7-7-7-8-8-|--7-7-7-7-7-7-7-7-5----8--10--|
--7-7-7-7-7-7-7-7-7-7-7-7-7-7-8-8-|--7-7-7-7-7-7-7-7-5----8--10--|
--5-5-5-5-5-5-5-5-5-5-5-5-5-5-6-6-|--5-5-5-5-5-5-5-5-3----6--8---|
----------------------------------|------------------------------|

Hell yah! Agnostic Front rules!!
Добавлено: 10.04.2012
Другие материалы по этой песне:
  • Аккорды и текст

Страница создана 10.04.2012
http://primanota.ru/agnostic-front/blinded-chords.htm
Привет, Гость.
Предлагаем пройти революционный курс по гитаре.
Подарок от PrimaNota.Ru, забирай!