PrimaNota.ru - самый крупный в мире бесплатный архив песенных текстов, аккордов, табулатур и нот


Agalloch - The Wolves Of Timberline - таба, видео

Регистрация Запомнить меня
Войти через:  Facebook Google Twitter Vk Yandex Mail.ru

Agalloch - The Wolves Of Timberline - таба, видео

Печатать
Просмотров: 311
Hi, 

I believe this is the main pattern played thru the whole song. Once I figure out 
the lead parts I will update the tab. 


          D5/A                       Cmaj

E|--------------------------------------------------|
B|--------------------------------------------------|
G|--------2--------2--------------0--------0--------|
D|-----0-----0--------0--------2-----2--------2-----|
A|--0-----------0-------0---3----------3--------3---|
E|--------------------------------------------------|

          D5/A                       Cmaj

E|--------------------------------------------------|
B|-----------------------------------------0--------|
G|--------2--------2--------------0-----------0-----|
D|-----0-----0--------0--------2-----2-----------0--|
A|--0-----------0-------0---3-----------3-----------|
E|--------------------------------------------------|

          D5/A                       Cmaj

E|--------------------------------------------------|
B|--------------------------------------------------|
G|--------2--------2--------------0--------0--------|
D|-----0-----0--------0--------2-----2--------2-----|
A|--0-----------0-------0---3----------3--------3---|
E|--------------------------------------------------|



E|-----------------------------------------------|
B|-----------------------------------0-----------|
G|-----------0--------------------0-----0--------|
D|--------0-----0--------------0-----------0-----|
A|-----0-----------0--------0-----------------0--|
E|--1-----------------1--3-----------------------|


(then repeat through the song)

the ending chord is an asus2

E|-----------0-|
B|--3--1--0--0-|
G|-----------1-|
D|-----------1-|
A|-----------0-|
E|-------------|
Добавлено: 20.02.2014
Другие материалы по этой песне:

Страница создана 18.08.2013
http://primanota.ru/agalloch/the-wolves-of-timberline-chords.htm
Привет, Гость.
Предлагаем пройти революционный курс по гитаре.
Подарок от PrimaNota.Ru, забирай!