PrimaNota.ru - самый крупный в мире бесплатный архив песенных текстов, аккордов, табулатур и нот


Aerosmith - Walk this way 1st - таба, видео

Регистрация Запомнить меня
Войти через:  Facebook Google Twitter Vk Yandex Mail.ru

Aerosmith - Walk this way 1st - таба, видео

Печатать
Просмотров: 124


Tabbed by: discoverguitaronline.com
Email: dandood@mac.com

This is the 1st solo for walk this way.



e|---10 b(12)-----8--h11--p8----------8--------------------|
B|-------------------------------------11---------11-b(13)-|
G|---------------------------------------------------------|
D|---------------------------------------------------------|
A|---------------------------------------------------------|
E|---------------------------------------------------------|

e|---8-------------------------------------------------------|
B|------11--p8-----------------------------------------------|
G|------------------11-p10---8---10---------10---10-b(12)---8|
D|------------------------------------------10---------------|
A|-----------------------------------------------------------|
E|-----------------------------------------------------------|

e|-----------------------------------------------------------|
B|--------10b(11)------8------8------------------------------|
G|-----------------------------11-----11--p10--8---10---8----|
D|--10-------------------------------------------------------|
A|-----------------------------------------------------------|
E|-----------------------------------------------------------|

e|-----------------------------------------------------------|
B|---------------------------------------------11b(13)-------|
G|--10--p8--11--p10---8---10---p8----------------------------|
D|-----------------------------------------------------------|
A|-----------------------------------------------------------|
E|-----------------------------------------------------------|



Добавлено: 22.12.2013
Другие материалы по этой песне:
  • Аккорды и текст

Страница создана 22.12.2013
http://primanota.ru/aerosmith/walk-this-way-1st-chords.htm
Привет, Гость.
Предлагаем пройти революционный курс по гитаре.
Подарок от PrimaNota.Ru, забирай!