PrimaNota.ru - самый крупный в мире бесплатный архив песенных текстов, аккордов, табулатур и нот


Adrian Belew - Beautiful - текст песни, таба, видео

Регистрация Запомнить меня
Войти через:  Facebook Google Twitter Vk Yandex Mail.ru

Adrian Belew - Beautiful - текст песни, таба, видео

Печатать
Просмотров: 173
Beautiful - Adrian Belew
From the "Hop Zop Too Wah" record.

Intro

E|--------0--------------|---------------------|
B|-----------3--------0--|--------0------------|
G|-----------------------|---------------------|
D|-----4-----------7-----|-----7------------7--|
A|--5-----------9--------|--8------------8-----|
E|-----------------------|-----------10--------|


*play arpeggio*
Blue water

swimming in pools around you

blue water
                     C7+
everything cool and quiet now
    A2
the wind has gone to sleep


A-open                Gopen
Beautiful the way you are

A-open                 Gopen
walking on the edge of time

B-open                Aopen
painted by the golden sun


*repeat intro*


*play arpeggio*
Blue shadows

running along the sand

how happy they seem

blue shadows
                     C7+
moving like fingers through your hair
A2
something from a dream


*repeat intro*


A-open                 Gopen
Walking on the edge of time

A-open                  Gopen
standing in the warm sunlight

A-open                Gopen
painted by the golden sun

A-open                Gopen
beautiful the way you are

            A-open                  Gopen
the way you are


*then A-open   Gopen   ad libitum*

Arpeggio

1 times

E|--------0-----------|----------------|
B|----------3------0--|-----0----------|
G|--------------------|----------------|
D|-----4---------7----|---7---------7--|
A|--5----------9------|-8--------8-----|
E|--------------------|-------10-------|

then, 1 time

E|--------0-----------|----------------|
B|----------3------0--|-----0----------|
G|--------------------|----------------|
D|-----4---------7----|---7-------7----|
A|--5----------9------|-8-------8------|
E|--------------------|-------5-----5--|

Some chords:


   C7+       A2    Aopen   Gopen   B-open  Aopen
E|---0---|---0---|---0---|---0---|---0---|---0---|
B|---0---|---0---|---0---|---0---|---0---|---0---|
G|---0---|---2---|---11--|---11--|---0---|---0---|
D|---2---|---2---|---10--|---9---|---12--|---11--|
A|---3---|---0---|---12--|---10--|---14--|---12--|
E|---0---|---0---|---0---|---0---|---0---|---0---|

Like always, fell free to make this tab better.
I needed a lot of times to appreciate "Hop Zot Too Wah" but in the end I realized that 
an incredible record...full of good songs like this...
I really love the "airy" atmosphere and the sweetness in the voice of Ade.

_Ozzy
geomscortichini@interfree.it
Добавлено: 17.07.2012
Другие материалы по этой песне:
  • Аккорды и текст

Страница создана 10.06.2012
http://primanota.ru/adrian-belew/beautiful-chords.htm
Привет, Гость.
Предлагаем пройти революционный курс по гитаре.
Подарок от PrimaNota.Ru, забирай!