PrimaNota.ru - самый крупный в мире бесплатный архив песенных текстов, аккордов, табулатур и нот


Adrian Belew - Postcard From Holland - текст песни, таба, видео

Регистрация Запомнить меня
Войти через:  Facebook Google Twitter Vk Yandex Mail.ru

Adrian Belew - Postcard From Holland - текст песни, таба, видео

Печатать
Просмотров: 126
Авторы музыки: Adrian Belew
Авторы текста: Adrian Belew
Adrian Belew - Postacard from Holland
From the amazing album "Here", the real masterpiece of Ade, IMHO.


* Symphonic intro (play first arpeggio) *


In Holland there is a table, in front of  me.
                                          Bb
E|---5-------5------8--------|------------6-------| 
B|---6-------6------5--------|------------6-------|
G|------5-------5------------|------------7-------| 
D|------------------7--------|------------8-------|
A|---8-------7-----------3---|------------8-------|
E|---------------------------|------------6-------| 


With Cafe au lait.....         cookies.
                                   A-
E|---5-------5--------8--------|---5----------| 
B|---6-------6--------5--------|---5------5---| 
G|------5-------5--------------|--------5-----|
D|--------------------7--------|------7-------| 
A|---8-------7-------------3---|--------------| 
E|-----------------------------|---5----------| 


Ouside....       There's a wide    and gentle    canal

     Bb    C                F           C          D-
E|---6-----8----|-----------8-----------------------------------| 
B|---6-----8----|-----------------11----10^8------8^10----------|
G|---7-----9----|-------------10--------------------------------| 
D|---8-----10---|---------------------------------0--------10---| 
A|---8-----10---|-----------8------------7----------------------| 
E|---5-----7----|-----------------------------8---------8-------| 


Two swans swim in it     in their mirror images          They must be in love 
     Bb    C                        Bb     C          G-                  C


The handsome holland people...    ...bikes.
                                       Bb
E|---5-------5-------8--------------|---6---| 
B|---6-------6-------5--------------|---6---|
G|------5-------5-------------------|---7---| 
D|-------------------7--------------|---8---|
A|---8-------7-------------3--------|---8---|
E|----------------------------------|---6---| 


Or sometimes their dogs.....                 hikes.
                                               A-
E|---5--------------5-------------8--------|---5----------| 
B|---6--------------6-------------5--------|---5------5---| 
G|------5--------------5-------------------|--------5-----|
D|-------------------------7------7--------|------7-------| 
A|---8--------------7------------------3---|--------------| 
E|-----------------------------------------|---5----------| 


      I stool by the tall ships...   and stepped in some old Dutch dog shit...

     Bb               C                    F             C          D-
E|---6----------------8----|---------------8--------------------------------------| 
B|---6----------------8----|---------------------11------10^8-------8^10----------|
G|---7----------------9----|-----------------10-----------------------------------| 
D|---8----------------10---|----------------------------------------0--------10---| 
A|---8----------------10---|---------------8--------------7-----------------------| 
E|---5----------------7----|-----------------------------------8----------8-------| 


It began to rain....      a strange enchanted mist 
     Bb       C               Bb                C 


And I love the cookies here     I could live forever here     with you

      A-          D-                    A-      D-                 A
E|----8-----------8---------------------8-------8------------------5---|
B|----5-----------6---------------------5-------6------------------5---| 
G|----5-----------5---------------------5-------5------------------6---| 
D|----5-----------7---------------------5-------7------------------7---| 
A|----7-----------5---------------------7-------5------------------7---| 
E|----5-----------5---------------------5-------5------------------5---| 


Lyrics

In Holland there is a table
in front of me
with cafe' au lait
and some kind of cookie
outside the window
there's a wide and gentle canal
two swans swim in it,
in their mirror images
they must be in love.
The handsome Holland people
ride ecological bikes
or sometimes their dogs
might take them along for a hike, 
I stood by the tall ships
and stepped in some old Dutch dog shit,
it began to rain
a strange enchanted mist
and I love the cookies here
I could live forever here
with you.



Like always, fell free to make this tab better.
I love this song, I love Holland and I love Ade.
A real masterpiece from a real virtuoso.
Thank you Ade.

_Ozzy
geomscortichini@interfree.it
Добавлено: 12.06.2012
Другие материалы по этой песне:
  • Аккорды и текст

Страница создана 22.05.2012
http://primanota.ru/adrian-belew/postcard-from-holland-chords.htm
Привет, Гость.
Предлагаем пройти революционный курс по гитаре.
Подарок от PrimaNota.Ru, забирай!