PrimaNota.ru - самый крупный в мире бесплатный архив песенных текстов, аккордов, табулатур и нот


AC/DC - Thats the way i want to rock and roll - таба, видео

Регистрация Запомнить меня
Войти через:  Facebook Google Twitter Vk Yandex Mail.ru

AC/DC - Thats the way i want to rock and roll - таба, видео

Печатать
Просмотров: 294
Уроки эстрадного вокала в Санкт-Петербурге


This song is fiarly simple if you like AC/DC but it's not like any other AC/DC
song, so thats what makes this song so cool.

Normal Tuning:

  [---------------------------------- Riff 1 ----]
  [----------------------------------------------]
  [----------------------------------------------]
  [-2--------------5-----------------------------]
  [-0--0-4-5-7-0---3--0-4-5-7-0------------------]
  [----------------------------------------------]




  Then the refrain sounds like this...


  [-----2-----------2----------- Riff 2 ---------]
  [-----3-----------3----------------------------]
  [-2---2-2-----2---2-2--------------------------]
  [-2---0-2-----2---0-2--------------------------]
  [-0-----0-----0-----0--------------------------]
  [----------------------------------------------]


  Angus will play Riff 1 while rhythm plays Riff 2 on the refrain...


Добавлено: 27.12.2013
Другие материалы по этой песне:
  • Аккорды и текст

Страница создана 27.12.2013
http://primanota.ru/ac-dc/thats-the-way-i-want-to-rock-and-roll-chords.htm
Привет, Гость.
Предлагаем пройти революционный курс по гитаре.
Подарок от PrimaNota.Ru, забирай!