PrimaNota.ru - самый крупный в мире бесплатный архив песенных текстов, аккордов, табулатур и нот


AC/DC - Tnt1 - таба, видео

Регистрация Запомнить меня
Войти через:  Facebook Google Twitter Vk Yandex Mail.ru

AC/DC - Tnt1 - таба, видео

Печатать
Просмотров: 196
Уроки эстрадного вокала в Санкт-Петербурге


Intro
E------------
B------------
G------------
D----2-------
A----2-------
E----0-------
Let it ring........

Verse
E-------------------------------------------------------------------
B-------------------------------------------------------------------
G------2--------------2---------------------------------------------
D-2----2---------2----2---------------------------------------------
A-2----0----0----2----0---0-----------------------------------------
E-0--3----3---3--0--3---3---3---------------------------------------
[-----play once----------][--repeat throughout verse-]

Chorus
E----------------------------------------------------------
B----------------------------------------------------------
G--2----------------------------2 bend and hold------------
D--2-----2-----end of chorus-------------------------------
A--0-----2-------------------------------------------------
E-----3--0-------------------------------------------------
  [T--N--T]

Добавлено: 02.08.2013
Другие материалы по этой песне:
  • Аккорды и текст

Страница создана 02.08.2013
http://primanota.ru/ac-dc/tnt1-chords.htm
Привет, Гость.
Предлагаем пройти революционный курс по гитаре.
Подарок от PrimaNota.Ru, забирай!