PrimaNota.ru - самый крупный в мире бесплатный архив песенных текстов, аккордов, табулатур и нот


AC/DC - Night Of The Long Knives - аккорды и текст, таба, бас-таба, видео

Регистрация Запомнить меня
Войти через:  Facebook Google Twitter Vk Yandex Mail.ru

AC/DC - Night Of The Long Knives - аккорды и текст, таба, бас-таба, видео

Печатать
Просмотров: 336
Night Of The Long Knives
AC/DC
Intro:
E|--3--------3--------|--2----------------|--3--------3-|
B|--3--------3--------|--3----------------|--3--------3-|
G|--0--------0--------|--2----------------|--0--------0-|
D|--0--------0--------|--0----------------|--0--------0-|
A|--------------------|--0----------------|-------------|
E|--3--------3--------|-------------------|--3--------3-|

E|--2-----------------|--3--------3----3----|--2----------|
B|--3--------2--------|--3--------3----3----|--3--------2-|
G|--2--------2--------|--0--------0----0----|--2--------2-|
D|--0--------2--------|--0--------0----0----|--0--------2-|
A|-----------0--------|---------------------|-----------0-|
E|--------------------|--3--------3----3----|-------------|

E|--3--------3----3----|--2-|
B|--3--------3----3----|--3-|
G|--0--------0----0----|--2-|
D|--0--------0----0----|--0-|
A|---------------------|----|
E|--3--------3----3----|----|

theme:
E|--------------------------|---------------------------|----------------------|
B|--------------------------|---------------------------|----------------------|
G|---------------7---6~-----|---------------------------|-----------7---6~-----|
D|-----------2---9---7~-----|-------2---0---------------|-------2---9---7~-----|
A|-----------2--------------|-------2-----4-2-0---------|-------2--------------|
E|--0--2-3-4--------------0-|-2-3-4-------------2r2-0-0-|-2-3-4--------------0-|

E|------------------------------|-------------------------|
B|------------------------------|-------------------------|
G|------------------------------|--------------7---6~-----|
D|----------2---0---------------|----------2---9---7~-----|
A|----------2-----4-2-0---------|----------2--------------|
E|----2-3-4-------------2r2-0-0-|----2-3-4--------------0-|

verse: who's... who your man
E|----------------------------3-|-----------1---------3-|----------1---------3-|
B|----------------------------3-|-----------1----5----3-|----------1----5----3-|
G|----------------------------0-|-----------2----5--0-0-|----------2----5--0-0-|
D|----------2---0-------------0-|-----------3----5--0-0-|----------3----5--0-0-|
A|----------2-----4-2-0---------|-----------3----3------|----------3----3------|
E|----2-3-4-------------2r2-3-3-|--------0--1---------3-|----------1---------3-|

who will.. fill your hand who's...
E|-----------1---------3-|-----------1--1---------|-----------3----2------|
B|-----------1----5----3-|-----------1--1--5----2-|-----------3----3----2-|
G|-----------2----5--0-0-|-----------2--2--5--0-2-|---------x-0----2--x-2-|
D|-----------3----5--0-0-|-----------3--3--5--0-2-|---------x-0----0--x-2-|
A|-----------3----3------|-----------3--3--3----0-|---------------------0-|
E|--------0--1---------3-|--------0--1--1---------|-----------3-----------|

who's you foe who's you judas you don't know
E|----------3----2------|-----------3----2------|----------3----2-|
B|----------3----3----2-|-----------3----3----2-|----------3----3-|
G|----------0----2--x-2-|---------x-0----2--x-2-|----------0----2-|
D|----------0----0--x-2-|---------x-0----0--x-2-|----------0----0-|
A|--------------------0-|---------------------0-|-----------------|
E|----------3-----------|-----------3-----------|----------3------|

Chorus:
Night of the long knives night of the
E|--3--------3----3----|--2-----------------|--3--------3----3-|
B|--3--------3----3----|--3--------2--------|--3--------3----3-|
G|--0--------0----0----|--2--------2--------|--0--------0----0-|
D|--0--------0----0----|--0--------2--------|--0--------0----0-|
A|---------------------|-----------0--------|------------------|
E|--3--------3----3----|--------------------|--3--------3----3-|

long knives night of the long knives
E|--2-----------------|--3--------3----3----|--2----------|
B|--3--------2--------|--3--------3----3----|--3--------2-|
G|--2--------2--------|--0--------0----0----|--2--------2-|
D|--0--------2--------|--0--------0----0----|--0--------2-|
A|-----------0--------|---------------------|-----------0-|
E|--------------------|--3--------3----3----|-------------|

night of the long theme:
E|--3--------3----3----|--2----------------|--------------------------|
B|--3--------3----3----|--3----------------|--------------------------|
G|--0--------0----0----|--2----------------|---------------7---6~-----|
D|--0--------0----0----|--0----------------|-----------2---9---7~-----|
A|---------------------|-------------------|-----------2--------------|
E|--3--------3----3----|-------------------|--0--2-3-4--------------0-|

chord change after 2nd chorus:
E|--------------------------|------------------------------|
B|---------------8---7~-----|------------------------------|
G|-----------2---9---7~-----|----------2---0---------------|
D|--2--------2------------2-|----------2-----4-2-0---------|
A|--0--2-3-4--------------0-|----2-3-4-------------2r2-0---|
E|--------------------------|----------------------------0-|
as theme:
E|-------------------------|
B|-------------------------|
G|--------------7---6~-----|
D|----------2---9---7~-----|
A|----------2--------------|
E|----2-3-4--------------0-|
Добавлено: 18.12.2013
Другие материалы по этой песне:

Страница создана 04.03.2012
http://primanota.ru/ac-dc/night-of-the-long-knives-chords.htm
Привет, Гость.
Предлагаем пройти революционный курс по гитаре.
Подарок от PrimaNota.Ru, забирай!