PrimaNota.ru - самый крупный в мире бесплатный архив песенных текстов, аккордов, табулатур и нот


AC/DC - Are You Ready - аккорды и текст, таба, бас-таба, видео

Регистрация Запомнить меня
Войти через:  Facebook Google Twitter Vk Yandex Mail.ru

AC/DC - Are You Ready - аккорды и текст, таба, бас-таба, видео

Печатать
Просмотров: 750
Are You Ready
AC/DC
- File created with Instab - http://www.pconline.com/~smcarey/instab.html


Author/Artist: AC/DC
Title: Are You Ready
Album: The Razor's Edge (1990)
Transcribed by: Dan Scheraga
Email: danscheraga@hotmail.com
 
Here's another forgotten ballbuster from AC/DC's post-70's catalog. What
a shame their output of the 80's and 90's is so frequently ignored...
 
The intro. Let the notes ring:
 
-----0-------0-------0-------0-------0-------0-------0--------0-----
---3---3---3---3---3---3---3---3---3---3---3---3---3---3----3---3---
--------------------------------------------------------------------
-0-------0----------------------------------------------------------
-----------------3-------3-------2-------2-------3--------3---------
--------------------------------------------------------------------
 
The main verse riff:
 
----------------------------
------------------6---------
-7-7-7-5-5-7---7--5--5------
-7-7-7-5-5-7---7--3--5--5---
-5-5-5-3-3-5---5-----3--5---
------------------------3---
 
The pre-chorus riff:
 
-----------------
-3---3---3-------
-2---2---0-------
-0---0---0---3---
-0---0-------3---
-----2---3---1---
 
And the chorus riff:   
 
-----------------------------------------------------------
-----------------------------------2-2---------------------
-7-7-7-5-5-7---5-5-5-4-4-5---4-4-4-2-2-4---5-5-5-4-4-5-----
-7-7-7-5-5-7---5-5-5-4-4-5---4-4-4-2-2-4---5-5-5-4-4-5-----
-5-5-5-3-3-5---3-3-3-2-2-3---2-2-2-0-0-2---3-3-3-2-2-3-----
-----------------------------------------------------------
 
I didn't bother tabbing the solo this time, perhaps I will get around to
it at a future date. FYI, Angus plays it in the D minor pentatonic,
mostly around the 10th fret.
 
Enjoy!
 
Dan Scheraga
Brooklyn, NY
 

     
Добавлено: 02.07.2013
Другие материалы по этой песне:

Страница создана 18.04.2012
http://primanota.ru/ac-dc/are-you-ready-chords.htm
Привет, Гость.
Предлагаем пройти революционный курс по гитаре.
Подарок от PrimaNota.Ru, забирай!