PrimaNota.ru - самый крупный в мире бесплатный архив песенных текстов, аккордов, табулатур и нот


AC/DC - Heatseeker Live - таба, видео

Регистрация Запомнить меня
Войти через:  Facebook Google Twitter Vk Yandex Mail.ru

AC/DC - Heatseeker Live - таба, видео

Печатать
Просмотров: 201
I tried to submit this when I was a non-member and they didn't take it. This lines up
with the version on the live cd exactly.

Malcolm repeats this 3 times then both guitars do this.
   D5              A5
e|-----------|   |-----|
b|-3-3-3-3-3-|   |-----|
g|-2-2-4-2-4.|   |-2---|
d|-0-0-0-0-0.|   |-2---|
a|-----------|   |-0---|
E|-----------|   |-----|

They play around on the A5 cord a few times then they do this.

Fig.1.

 G5 D/F# D     G5 D A5
|--------2-x-x--0-2---|
|-3--3---3-x-x--3-3-2-|
|-0--2---2-x-x--0-2-2-|
|-0--0---0------0-0-0-|
|-0--0----------------|
|-3--2----------------|

Fig.2.

Malcolm         Angus
  
   A5             A5
|---------|     |------------|
|---------|     |------------|
|-2-x0-2-.|     |-----------.|
|-2-x0-2-.|     |-14--x12-14-.|
|-0-x0-0--|     |-12--x12-12--|
|---------|     |------------|


Fig.1. once more.

The choruses are Fig. 2.

The other tabs have a somewhat right solo in them, I won't bother to tab it.


There's this one section after the second chorus that goes like this.


|------------------------------|
|------------------------------|
|-----------------------------.|
|-----------------------------.|
|-0-4-0-0-6-0-0-4-0-0-6-0-4-0--|
|--------------- --------------|

Here's a cool thing at the end of the solo.

   ~~~~~~~~~~~~~~~
|--------------/17-|
|------------------|
|------------------|
|-/12-/12-/12------|
|------------------|
|------------------|


The rest of this song is just these parts in a different order.


Thanks for reading this,


                                 Sheldon and Eric W.
Добавлено: 10.07.2012
Другие материалы по этой песне:
  • Аккорды и текст

Страница создана 10.07.2012
http://primanota.ru/ac-dc/heatseeker-live-chords.htm
Привет, Гость.
Предлагаем пройти революционный курс по гитаре.
Подарок от PrimaNota.Ru, забирай!