PrimaNota.ru - самый крупный в мире бесплатный архив песенных текстов, аккордов, табулатур и нот


AC/DC - House Of Jazz - аккорды и текст, таба, видео

Регистрация Запомнить меня
Войти через:  Facebook Google Twitter Vk Yandex Mail.ru

AC/DC - House Of Jazz - аккорды и текст, таба, видео

Печатать
Просмотров: 380
Уроки эстрадного вокала в Санкт-Петербурге
House Of Jazz
AC/DC
E|----------------------------|-----------------------|
B|----------------------------|-----------------------|
G|-----------9----------------|---------------------2-|
D|--8p7------9-----9-----5--7-|-8p7------------5----2-|
A|--7-7-7p5--------------5--7-|-7-7-7p5--------5----0-|
E|-----------0--0--0--0-------|----------0--0--3------|

E|--------------------------|-------------------------|------------------------|
B|--------------------------|-------------------------|------------------------|
G|--3p2-0--------------0--2-|-3p2-0--------------0--2-|-3p2-0-------------0--2-|
D|--2-2---2-----2------0--2-|-2-2---2-----2------0--2-|-2-2---2-----2-----0--2-|
A|--------------2-----------|-------------2-----------|-------------2----------|
E|-----------0--0-----------|----------0--0-----------|----------0--0----------|

humdinger bell ringer
E|--------------------------|---------------------------|----------------------|
B|--------------------------|---------------------------|----------------------|
G|--3p2-0--------------0--2-|-3p2-0----------------0--2-|-3p2-0-----------0--2-|
D|--2-2---2-----2------0--2-|-2-2---2--------------0--2-|-2-2---2---------0--2-|
A|--------------2-----------|---------------------------|----------------------|
E|-----------0--0-----------|----------0--0--0--0-------|---------0-0-0-0------|

got a nasty... to slow you down mud slinger
E|----------------------------|-----------------------|------------------------|
B|----------------------------|-----------------------|------------------------|
G|--3p2-0----------------0--2-|-3p2-0------------0--2-|-3p2-0-------------0--2-|
D|--2-2---2--------------0--2-|-2-2---2--2--2----0--2-|-2-2---2-----------0--2-|
A|----------------------------|----------2--2---------|------------------------|
E|-----------0--0--0--0-------|----------0--0---------|----------0-0-0-0-------|

gold digger who point... and do you down
E|----------------------------|---------------------------|--------------------|
B|----------------------------|---------------------------|--------------------|
G|--3p2-0----------------0--2-|-3p2-0----------------0--2-|-3p2-0----------0-2-|
D|--2-2---2--------------0--2-|-2-2---2--------------0--2-|-2-2---2--2--2--0-2-|
A|----------------------------|---------------------------|----------2--2------|
E|-----------0--0--0--0-------|----------0--0--0--0-------|----------0--0------|

kickin' and fighting... lightnin' blindin'...
E|--------------------------|-----------------------|--------------------------|
B|--------------------------|-----------------------|--------------------------|
G|-3p2-0---------------0--2-|-3p2-0-------------0-2-|-3p2-0---------------0--2-|
D|-2-2---2------=------0--2-|-2-2---2--2--2--2--0-2-|-2-2---2-------------0--2-|
A|--------------------------|----------2--2--2------|--------------------------|
E|----------0--0--0--0------|----------0--0--0------|----------0--0--0--0------|

are you comin' in are you comin' in I said
E|-------------------------|----------------------|------------------------|
B|-------------------------|----------------------|------------------------|
G|--3p2-0------------------|-0----0----0--0--0--0-|-2--2--2--2--2--2--2--2-|
D|--2-2---2--2--2--------2-|-0----0----0--0--0--0-|-2--2--2--2--2--2--2--2-|
A|-----------2--2--------2-|----------------------|-0--0--0--0--0--0--0--0-|
E|-----------0--0--------0-|-3----3----3--3--3--3-|------------------------|

Chorus:

come into the house of come into the house of
E|-------------------------|------------------------|
B|-------------------------|------------------------|
G|-------------------------|-2--2--2--2--2--2--2--2-|
D|--2--2--2--2--2--2--2--2-|-2--2--2--2--2--2--2--2-|
A|--2--2--2--2--2--2--2--2-|-0--0--0--0--0--0--0--0-|
E|--0--0--0--0--0--0--0--0-|------------------------|

come into the house of jazz
E|-------------------------|------------------------|
B|-------------------------|------------------------|
G|-------------------------|------------------------|
D|--5--5--5--5--5--5--5--5-|-5--5--5--5--5--5--5--5-|
A|--5--5--5--5--5--5--5--5-|-5--5--5--5--5--5--5--5-|
E|--3--3--3--3--3--3--3--3-|-2--2--2--2--2--2--2--2-|

come into the house of come into the house of
E|-------------------------|------------------------|
B|-------------------------|------------------------|
G|-------------------------|-2--2--2--2--2--2--2--2-|
D|--2--2--2--2--2--2--2--2-|-2--2--2--2--2--2--2--2-|
A|--2--2--2--2--2--2--2--2-|-0--0--0--0--0--0--0--0-|
E|--0--0--0--0--0--0--0--0-|------------------------|

come into the house of jazz 2nd verse:
E|-------------------------|------------------------|--------------------------|
B|-------------------------|------------------------|--------------------------|
G|-------------------------|-4--4--4--4--4--4--0--2-|-3p2-0---------------0--2-|
D|--5--5--5--5--5--5--5--5-|-4--4--4--4--4--4--0--2-|-2-2---2--2--2----2--0--2-|
A|--5--5--5--5--5--5--5--5-|-2--2--2--2--2--2-------|----------2--2----2-------|
E|--3--3--3--3--3--3--3--3-|------------------------|----------0--0----0-------|

After 2nd chorus:

Jazz are you comin' in solo:
E|-------------------------|------------------|--------|
B|-------------------------|------3-----------|-3------|
G|--4--4--4--4--4--4--4--4-|-1----2-----------|-2----2-|
D|--4--4--4--4--4--4--4--4-|-2----0-----------|-0----2-|
A|--2--2--2--2--2--2--2--2-|-2----------------|------0-|
E|-------------------------|-0----------------|--------|

E|-------------------|--------------------|--------------------------|
B|-------3-----------|-3------------------|--------------------------|
G|--1----2-----------|-2----2----0----2---|-3p2-0---------------0--2-|
D|--2----0-----------|-0----2----0----2---|-2-2---2--2--2----2--0--2-|
A|--2----------------|------0---------0---|----------2--2----2-------|
E|--0----------------|-----------3--------|----------0--0----0-------|

E|---------------------------|------------------------|------------------------|
B|---------------------------|------------------------|------------------------|
G|--3p2-0---------------0--2-|-3p2-0-------------0--2-|-3p2-0------------------|
D|--2-2---2--2--2----2--0--2-|-2-2---2--2--2--2--0--2-|-2-2---2--2--2--2--2--2-|
A|-----------2--2----2-------|----------2--2--2-------|----------2--2--2--2--2-|
E|-----------0--0----0-------|----------0--0--0-------|----------0--0--0--0--0-|

E|-----------------------|------------------------|--------------------------|
B|-----------------------|------------------------|--------------------------|
G|--0----0----0--0--0--0-|-2--2--2--2--2--2--0--2-|-3p2-0---------------0--2-|
D|--0----0----0--0--0--0-|-2--2--2--2--2--2--0--2-|-2-2---2--2--2----2--0--2-|
A|-----------------------|-0--0--0--0--0--0-------|----------2--2----2-------|
E|--3----3----3--3--3--3-|------------------------|----------0--0----0-------|

I said
E|---------------------------|--------------------|------------------------|
B|---------------------------|--------------------|------------------------|
G|--3p2-0--------------------|-0----2----0----2---|-2--2--2--2--2--2--2--2-|
D|--2-2---2--2--2----2--2--2-|-0----2----0----2---|-2--2--2--2--2--2--2--2-|
A|-----------2--2----2--2--2-|------0---------0---|-0--0--0--0--0--0--0--0-|
E|-----------0--0----0--0--0-|-3---------3--------|------------------------|

come into the house of... (chorus)
E|-------------------------|
B|-------------------------|
G|-------------------------|
D|--2--2--2--2--2--2--2--2-|
A|--2--2--2--2--2--2--2--2-|
E|--0--0--0--0--0--0--0--0-|

Добавлено: 02.03.2014
Другие материалы по этой песне:
  • Аккорды и текст

Страница создана 26.06.2012
http://primanota.ru/ac-dc/house-of-jazz-chords.htm
Привет, Гость.
Предлагаем пройти революционный курс по гитаре.
Подарок от PrimaNota.Ru, забирай!