PrimaNota.ru - самый крупный в мире бесплатный архив песенных текстов, аккордов, табулатур и нот


AC/DC - Gimme A Bullet - текст песни, таба, бас-таба, видео

Регистрация Запомнить меня
Войти через:  Facebook Google Twitter Vk Yandex Mail.ru

AC/DC - Gimme A Bullet - текст песни, таба, бас-таба, видео

Печатать
Просмотров: 371
Уроки эстрадного вокала в Санкт-Петербурге
Intro:

E|-----------------------|-----------------------|-----------------------|
B|-----------------------|-----------------------|-----------------------|
G|---------------2----0--|---------------2----0--|---------------0----2--|
D|--2----2-------2----0--|--2----2-------2----0--|--2----2-------0----2--|
A|--0----0----3b---------|--0----0----3b---------|--0----0----3b---------|
E|-----------------------|-----------------------|-----------------------|

                         2nd guitar
|-----------------------|---------------------|--------------------|
|-----------------------|-------------3----3--|------------3----3--|
|---------------2----2--|--2----------0----0--|------------0----0--|
|--2----2-------2----2--|--2----------4----5--|------------4----5--|
|--0----0----3b---------|--0------------------|--------------------|
|-----------------------|---------------------|--------------------|

|--------------------|------------------|---------------------|
|------------3-------|------------------|-------------3----3--|
|------------0----2--|------------------|--2----------0----0--|
|------------4----2--|------------------|--2----------4----5--|
|-----------------0--|------------------|--0------------------|
|--------------------|------------------|---------------------|

|--------------------|--------------------|------------------|
|------------3----3--|------------3-------|------------------|
|------------0----0--|------------0----2--|------------------|
|------------4----5--|------------4----2--|------------------|
|--------------------|-----------------0--|------------------|
|--------------------|--------------------|------------------|

 Verse:
|------------------3--|-----------------3--|--------------------|
|-------------3----3--|------------3----3--|------------3-------|
|--2----------2----0--|------------2----0--|------------2----2--|
|--2----------0-------|------------0-------|------------0----2--|
|--0------------------|--------------------|-----------------0--|
|---------------------|--------------------|--------------------|

|------------------|------------------3--|-----------------3--|
|------------------|-------------3----3--|------------3----3--|
|------------------|--2----------2----0--|------------2----0--|
|------------------|--2----------0-------|------------0-------|
|------------------|--0------------------|--------------------|
|------------------|---------------------|--------------------|

                                             Chorus:
|--------------------|----------------------|----------------------|
|------------3-------|----------------------|----------------------|
|------------2----2--|------2------2--2-----|--5----5------5----7--|
|------------0----2--|------2------2--2-----|--5----5------5----7--|
|-----------------0--|------0------0--0--0--|--3----3------3----5--|
|--------------------|----------------------|----------------------|

|----------------------|----------------------|-----------------------|
|----------------------|----------------------|-----------------------|
|------7------7--7-----|--5----5------5----7--|----7--7------7--7-----|
|------7------7--7-----|--5----5------5----7--|----7--7------7--7-----|
|------5------5--5--0--|--3----3------3----5--|----5--5------5--5--0--|
|----------------------|----------------------|-----------------------|

|----------------------|----------------------|------------------------|
|----------------------|----------------------|------------------------|
|--5----5------5----7--|------7------7--7-----|---------------------4--|
|--5----5------5----7--|------7------7--7-----|--3----3----3--3--3--5--|
|--3----3------3----5--|------5------5--5--0--|--3----3----3--3--3--5--|
|----------------------|----------------------|--1----1----1--1--1--3--|

|----------------------|
|----------------------|
|----4--4----4----4----|
|----5--5----5----5----|
|----5--5----5----5----|
|----3--3----3----3----|
Добавлено: 27.04.2012
Другие материалы по этой песне:

Страница создана 21.03.2012
http://primanota.ru/ac-dc/gimme-a-bullet-chords.htm
Привет, Гость.
Предлагаем пройти революционный курс по гитаре.
Подарок от PrimaNota.Ru, забирай!