PrimaNota.ru - самый крупный в мире бесплатный архив песенных текстов, аккордов, табулатур и нот


AC/DC - Go Down - аккорды и текст, таба, видео

Регистрация Запомнить меня
Войти через:  Facebook Google Twitter Vk Yandex Mail.ru

AC/DC - Go Down - аккорды и текст, таба, видео

Печатать
Просмотров: 384
Уроки эстрадного вокала в Санкт-Петербурге
Go Down
AC/DC
Intro:
E|---------------------|------------------|---------------------|
B|---------------------|------------------|---------------------|
G|------------2--5--2--|------------------|------------2--5--2--|
D|------------2--5--2--|------------------|------------2--5--2--|
A|------------0--3--0--|------------------|------------0--3--0--|
E|---------------------|------------------|---------------------|
 
|------------------|---------------------|---------------------|
|------------------|---------------------|---------------------|
|------------------|------------2--5--2--|------------2--5--2--|
|------------------|------------2--5--2--|------------2--5--2--|
|------------------|------------0--3--0--|------------0--3--0--|
|------------------|---------------------|---------------------|

|---------------------|------------------------|------------------------|
|---------------------|------------------------|------------------------|
|------------2--5--2--|----2--5--2----2--5--2--|----2--5--2----2--5--2--|
|------------2--5--2--|----2--5--2----2--5--2--|----2--5--2----2--5--2--|
|------------0--3--0--|----0--3--0----0--3--0--|----0--3--0----0--3--0--|
|---------------------|------------------------|------------------------|

Verse:
|----------------------|----------------------|----------------------|
|----------------------|----------------------|----------------------|
|----2------2----0--2--|----2------2----0--2--|----2------2----0--2--|
|----2------2----0--2--|----2------2----0--2--|----2------2----0--2--|
|----0------0-------0--|----0------0-------0--|----0------0-------0--|
|----------------------|----------------------|----------------------|

|----------------------|----------------------|----------------------|
|----------------------|----------------------|----------------------|
|----2------2----0--2--|----2------2----0--2--|----2------2----0--2--|
|----2------2----0--2--|----2------2----0--2--|----2------2----0--2--|
|----0------0-------0--|----0------0-------0--|----0------0-------0--|
|----------------------|----------------------|----------------------|
Chord Change
|----------------------|----------------------|----------------------|
|----------------------|----------------------|----------------------|
|----2------2----0--2--|----2------2----5--7--|----7------7----5--7--|
|----2------2----0--2--|----2------2----5--7--|----7------7----5--7--|
|----0------0-------0--|----0------0----3--5--|----5------5----3--5--|
|----------------------|----------------------|----------------------|

Chord Change
|----------------------|----------------------|----------------------|
|----------------------|----------------------|----------------------|
|----7------7----5--7--|----7------7----5--7--|----7------7----7--9--|
|----7------7----5--7--|----7------7----5--7--|----7------7----7--9--|
|----5------5----3--5--|----5------5----3--5--|----5------5----5--7--|
|----------------------|----------------------|----------------------|

|----------------------|----------------------|----------------------|
|----------------------|----------------------|----------------------|
|----9------9----7--9--|----9------9----7--9--|----9------9----7--9--|
|----9------9----7--9--|----9------9----7--9--|----9------9----7--9--|
|----7------7----5--7--|----7------7----5--7--|----7------7----5--7--|
|----------------------|----------------------|----------------------|

Go Down Go Down...
|----------------------|--------------------|--------------------|
|----------------------|--------------------|--------------------|
|----9------9----5--2--|--------------5--2--|--------------5--2--|
|----9------9----5--2--|--------------5--2--|--------------5--2--|
|----7------7----3--0--|--------------3--0--|--------------3--0--|
|----------------------|--------------------|--------------------|

|----------------------|--------------------|--------------------|
|----------------------|--------------------|--------------------|
|------5--2------5--2--|--------------5--2--|--------------5--2--|
|------5--2------5--2--|--------------5--2--|--------------5--2--|
|------3--0------3--0--|--------------3--0--|--------------3--0--|
|----------------------|--------------------|--------------------|

|--------------------|----------------------|------------------|
|--------------------|----------------------|------------------|
|--------------5--2--|------5--2------5--2--|------------------|
|--------------5--2--|------5--2------5--2--|------------------|
Добавлено: 28.12.2013
Другие материалы по этой песне:

Страница создана 01.03.2012
http://primanota.ru/ac-dc/go-down-chords.htm
Привет, Гость.
Предлагаем пройти революционный курс по гитаре.
Подарок от PrimaNota.Ru, забирай!