PrimaNota.ru - самый крупный в мире бесплатный архив песенных текстов, аккордов, табулатур и нот


AC/DC - Black Ice (album) - таба, видео

Регистрация Запомнить меня
Войти через:  Facebook Google Twitter Vk Yandex Mail.ru

AC/DC - Black Ice (album) - таба, видео

Печатать
Просмотров: 336
Уроки эстрадного вокала в Санкт-Петербурге
*UPDATE*12/15/08
jUST GOT TO THE PC TO UPDATE.
SORRY FOR THE WAIT!!!

*UPDATE*11/11/08
ADDED ROCKING ALL THE WAY

*UPDATE*10/31/08
ADDED ROCK N ROLL DREAM!
JUST ONE MORE GUYS!!!

*UPDATE*10/27/08
ADDED SMASH N' GRAB

*UPDATE*10/24/08?
ADDED MONEY MADE.

*UPDATE* 10/23/08
ADDED DECIBEL AND WHEELS.


I don't expect credit for this, but i thought id be nice and put together the
black ice album from acdc in tabs.


1.Rock N Roll Train – Unknown
2.Skies On Fire – Playinbass1432
3.Big Jack – Blur819
4.Anything Goes – Blur819
5.War Machine – benjo48
6.Smash N' Grab - marcelaguiar
7.Spoilin' For A Fight – ACDCrox74
8.Wheels – blur819
9.Decibel – blur819
10.Stormy May Day – gtcspider
11.She Likes Rock N' Roll – blur819
12.Money Made – gnolivos
13.Rock N' Roll Dream – marcelaguiar
14.Rocking All The Way – benjo48
15.Black Ice – Unknown


-----------------------------------------------------------------------
                      1.ROCK 'N' ROLL TRAIN-AC/DC
-----------------------------------------------------------------------

e|--------------------|
B|--------------------|
G|-Angus Young--------|
D|-Lead---------------|
A|--------------------|
E|--------------------|
 |
e|--------------------|
B|--------------------|
G|-Malcolm Young------|
D|-Rhythm-------------|
A|--------------------|
E|--------------------|


Intro Riff

e|----------------------------------------------|
B|---3----3----3--------3-3-3-3-3-3-3-3-3-------|
G|-2-2--2-2----2--------2-0-0-0-0-2-2-2-2-2-2-2-|  Angus only
D|-2-0--2-0----0--------0-0-0-0-0-0-0-0-0-2-2-2-|
A|-0-0--0-0----0----------x-x-x-x---------0-0-0-|
E|------------------------3-3-3-3---------------|


e|----------------------------------------------|
B|---3----3----3--------3-3-3-3-3-3-3-3-3-------|
G|-2-2--2-2----2--------2-0-0-0-0-2-2-2-2-2-2-2-|
D|-2-0--2-0----0--------0-0-0-0-0-0-0-0-0-2-2-2-|
A|-0-0--0-0----0----------x-x-x-x---------0-0-0-|
E|------------------------3-3-3-3---------------|
 |
e|------------------------3-3-3-3-2-2-2---------|
B|---3----3----3----------3-3-3-3-3-3-3---------|
G|-2-2--2-2----2----------0-0-0-0-2-2-2-0-2-2-2-|
D|-2-0--2-0----0----------0-0-0-0-0-0-0-0-2-2-2-|
A|-0-0--0-0----0----------x-x-x-x-------0-0-0-0-|
E|------------------------3-3-3-3---------------|


e|----------------------------------------------|
B|---3----3----3--------3-3-3-3-3-3-3-3-3-------|
G|-2-2--2-2----2--------2-0-0-0-0-2-2-2-2-2-2-2-|
D|-2-0--2-0----0--------0-0-0-0-0-0-0-0-0-2-2-2-|
A|-0-0--0-0----0----------x-x-x-x---------0-0-0-|
E|------------------------3-3-3-3---------------|
 |
e|------------------------3-3-3-3-2-2-2---------|
B|---3----3----3----------3-3-3-3-3-3-3---------|
G|-2-2--2-2----2----------0-0-0-0-2-2-2-0-2-2-2-|
D|-2-0--2-0----0----------0-0-0-0-0-0-0-0-2-2-2-|
A|-0-0--0-0----0----------x-x-x-x-------0-0-0-0-|
E|------------------------3-3-3-3---------------|

e|----------------------------------------------|
B|---3----3----3--------3-3-3-3-3-3-3-3-3-------|
G|-2-2--2-2----2--------2-0-0-0-0-2-2-2-2-2-2-2-|
D|-2-0--2-0----0--------0-0-0-0-0-0-0-0-0-2-2-2-|
A|-0-0--0-0----0----------x-x-x-x---------0-0-0-|
E|------------------------3-3-3-3---------------|
 |
e|------------------------3-3-3-3-2-2-2---------|
B|---3----3----3----------3-3-3-3-3-3-3---------|
G|-2-2--2-2----2----------0-0-0-0-2-2-2-0-2-2-2-|
D|-2-0--2-0----0----------0-0-0-0-0-0-0-0-2-2-2-|
A|-0-0--0-0----0----------x-x-x-x-------0-0-0-0-|
E|------------------------3-3-3-3---------------|

Both Angus and Malcolm hold the last A5 chord until Angus
starts the Verse Riff.

Verse
Malcolm rests from this point on until the Pre Chorus.

e|------------------| |------------------|
B|---3---3----3-----| |---3---3----------|
G|-2-2---2----2-----| |-2-2---2----2-----| x2
D|-2-4-2-4----4-----| |-2-4-2-4----2-----|
A|-0-0-0-0----0-----| |-0-0-0-0----0-----|
E|------------------| |------------------|

Pre Chorus
(Both Angus and Malcolm plam mute these parts. They stop muting
at the "*" )

e|----------------------------|
B|-3-----1-1-3-3-3-3-3-3-3----|
G|-2-2-2-0-0-0-0-0-2-2-0-2----|
D|---2-2-2-2-0-0-0-0-0-0-0----|
A|----------------------------|
E|----------------------------|
 |                              x3
e|----------------------------|
B|----------------------------|
G|-------0-0-----0-2-2-0-2----|
D|-2-2-2-2-2-0-0-0-0-0-0-2----|
A|-0-0-0-3-3-x-x--------------|
E|-----------3-3--------------|

                 *
e|-----------------|
B|-3-----1-1-3-3---|
G|-2-2-2-0-0-0-0-0-|
D|---2-2-2-2-0-0-0-|
A|-----------------|
E|-----------------|
 |               *
e|-----------------|
B|-----------------|
G|-------0-0-----0-|
D|-2-2-2-2-2-0-0-0-|
A|-0-0-0-3-3-x-x-0-|
E|-----------3-3---|

e|-------------------------------------|
B|-3-3-3-3----3-3-3----3-3-3-3----3----|
G|-2-2-2-2----2-2-2----2-2-2-2----2----|
D|-0-0-0-0----0-0-0----0-0-0-0----0----|
A|-------------------------------------|
E|-------------------------------------|
 |
e|-------------------------------------|
B|-3-3-3-3----3-3-3----3-3-3-3----3----|
G|-2-2-2-2----2-2-2----2-2-2-2----2----|
D|-0-0-0-0----0-0-0----0-0-0-0----0----|
A|-------------------------------------|
E|-------------------------------------|

Chorus

e|------------------------3-3--------------------------|
B|---3----3----3----------3-3-----3-3-------3----------|
G|-2-2--2-2----2----------0-0-----2-2-------2-2---2----|
D|-2-0--2-2----0----------0-0-----0-0-------0-2-2-2----|
A|-0-0--0-0----0----------x-x-----x-x---------0-0-0----|
E|------------------------3-3-----2-2------------------|
 |                                                       x4
e|------------------------3-------2--------------------|
B|---3----3----3----------3-3-3-3-3---------3----------|
G|-2-2--2-2----2----------0-0-0-0-2-2-2-2-2-2-2-2-2----|
D|-2-0--2-0----0----------0-0-0-0-0-0-0-0-0-0-2-2-2----|
A|-0-0--0-0---------------x-------------------0-0-0----|
E|------------------------3----------------------------|

Verse

e|------------------| |------------------|
B|---3---3----3-----| |---3---3----------|
G|-2-2---2----2-----| |-2-2---2----2-----|  Angus only
D|-2-4-2-4----4-----| |-2-4-2-4----2-----|
A|-0-0-0-0----0-----| |-0-0-0-0----0-----|
E|------------------| |------------------|

e|------------------| |------------------|
B|---3---3----3-----| |---3---3----------|
G|-2-2---2----2-----| |-2-2---2----2-----|
D|-2-4-2-4----4-----| |-2-4-2-4----2-----|
A|-0-0-0-0----0-----| |-0-0-0-0----0-----|
E|------------------| |------------------|
 |                    |
e|------------------| |------------------|
B|---3---3----3-----| |---3---3----------|
G|-2-2---2----2-----| |-2-2---2----2-----|
D|-2-4-2-4----4-----| |-2-4-2-4----2-----|
A|-0-0-0-0----0-----| |-0-0-0-0----0-----|
E|------------------| |------------------|

Pre Chorus
(Both Angus and Malcolm palm mute the same parts )

e|----------------------------|
B|-3-----1-1-3-3-3-3-3-3-3----|
G|-2-2-2-0-0-0-0-0-2-2-0-2----|
D|---2-2-2-2-0-0-0-0-0-0-0----|
A|----------------------------|
E|----------------------------|
 |                              x3
e|----------------------------|
B|----------------------------|
G|-------0-0-----0-2-2-0-2----|
D|-2-2-2-2-2-0-0-0-0-0-0-2----|
A|-0-0-0-3-3-x-x--------------|
E|-----------3-3--------------|

                 *
e|-----------------|
B|-3-----1-1-3-3---|
G|-2-2-2-0-0-0-0-0-|
D|---2-2-2-2-0-0-0-|
A|-----------------|
E|-----------------|
 |               *
e|-----------------|
B|-----------------|
G|--------0-0----0-|
D|-2-2-2-2-2-0-0-0-|
A|-0-0-0-3-3-x-x-0-|
E|-----------3-3---|

e|-------------------------------------|
B|-3-3-3-3----3-3-3----3-3-3-3----3----|
G|-2-2-2-2----2-2-2----2-2-2-2----2----|
D|-0-0-0-0----0-0-0----0-0-0-0----0----|
A|-------------------------------------|
E|-------------------------------------|
 |
e|-------------------------------------|
B|-3-3-3-3----3-3-3----3-3-3-3----3----|
G|-2-2-2-2----2-2-2----2-2-2-2----2----|
D|-0-0-0-0----0-0-0----0-0-0-0----0----|
A|-------------------------------------|
E|-------------------------------------|

Chorus

e|------------------------3-3--------------------------|
B|---3----3----3----------3-3-----3-3-------3----------|
G|-2-2--2-2----2----------0-0-----2-2-------2-2---2----|
D|-2-0--2-2----0----------0-0-----0-0-------0-2-2-2----|
A|-0-0--0-0---------------x-x-----x-x---------0-0-0----|
E|------------------------3-3-----2-2------------------|
 |                                                       x4
e|------------------------3-------2--------------------|
B|---3----3----3----------3-3-3-3-3---------3----------|
G|-2-2--2-2----2----------0-0-0-0-2-2-2-2-2-2-2-2-2----|
D|-2-0--2-0----0----------0-0-0-0-0-0-0-0-0-0-2-2-2----|
A|-0-0--0-0---------------x-------------------0-0-0----|
E|------------------------3----------------------------|

Solo

e|-------------------------------------------------------|
B|-------------------------------------------------------|
G|-x\\\----7^9~~~~-5---5-----------5--7^9~~~7^9~~~7^9~~~-|
D|-x\\\--------------7---5-7~~~~~~-----------------------|
A|-x\\\--------------------------------------------------|
E|-------------------------------------------------------|

e|-----------------------------------8~~~~--|
B|------------------------8---8-10-8--------|
G|-7p5--------5^~~~~--8h9---9---------------|
D|-----7~~~---5-~~~~------------------------|
A|------------------------------------------|
E|------------------------------------------|

e|-8^~~---8^~~~~~------|-12-~~~-12-~~~-12-~~~-12-~~|
B|-------------10~~~---|-13^~~--13^~~~-13^~~~-13~~~|
G|-------------------x-|---------------------------|
D|-------------------x-|---------------------------|
A|---------------------|---------------------------|
E|---------------------|---------------------------|

     pb
e|-10^11r-8-------------------|---------|
B|----------10-10~~~~~~~~~~~~-|~~~~////-|
G|----------------------------|-(Drums)-|
D|----------------------------|---------|
A|----------------------------|---------|
E|----------------------------|---------|

e|-8-------|
B|---10~~~~|
G|---------|
D|---------|
A|---------|
E|---------|

Malcolm repeats this under the solo:

e|-------------3-3-3-3-------|
B|-3-----------3-3-3-3-3-3-3-|
G|-2-2-2-2-----0-0-0-0-2-2-2-|
D|-0-2-2-2-----0-0-0-0-0-0-0-|
A|---0-0-0-----x-x-x-x-------|
E|-------------3-3-3-3-------|

Verse

e|------------------| |------------------|
B|---3---3----3-----| |---3---3----------|
G|-2-2---2----2-----| |-2-2---2----2-----|
D|-2-4-2-4----4-----| |-2-4-2-4----2-----|
A|-0-0-0-0----0-----| |-0-0-0-0----0-----|
E|------------------| |------------------|
 |                                        x2
e|------------------| |------------------|
B|---3---3----3-----| |---3---3----------|
G|-2-2---2----2-----| |-2-2---2----2-----|
D|-2-4-2-4----4-----| |-2-4-2-4----2-----|
A|-0-0-0-0----0-----| |-0-0-0-0----0-----|
E|------------------| |------------------|

Guitar Solo 2/Bridge

e|-10^--8---------------|
B|--------10~~~---8^----|
G|----------------------|
D|----------------------|
A|----------------------|
E|----------------------|

e|------5---------------|
B|--------5--8^10~~~~---|
G|-7^9------------------|
D|----------------------|
A|----------------------|
E|----------------------|

e|-------------|
B|-13~~~~~~~~\-|
G|-------------|
D|-------------|
A|-------------|
E|-------------|

e|--------------------|
B|-15^17r15-15~~~~-13-|
G|--------------------|
D|--------------------|
A|--------------------|
E|--------------------|

e|------5~~~------5-5~~~-|
B|-8^10------8^10--------|
G|-----------------------|
D|-----------------------|
A|-----------------------|
E|-----------------------|

         Hold bend
e|----8--8^10--8--8^10~~~~-10----13^15-----|
B|-10------------------------10------------|
G|-----------------------------------------|
D|-----------------------------------------|
A|-----------------------------------------|
E|-----------------------------------------|

e|-15----------------------------------------|
B|------13----13-15-13------------------12^--|
G|---------14----------14-14p12---14~~~------|
D|-----------------------------14------------|
A|-------------------------------------------|
E|-------------------------------------------|

e|-----------------|
B|-------------12^-|
G|-14~~~~~~~~------|
D|-----------------|
A|-----------------|
E|-----------------|
                              pb
e|-15--------------20~~~~----------------15------------|
B|----15-18-18^20--------10-12^13r-12~~~----15-20^22~~-|
G|-----------------------------------------------------|
D|-----------------------------------------------------|
A|-----------------------------------------------------|
E|-----------------------------------------------------|

Malcolm:

e|---------------------------------|
B|---------------------------------|
G|-2-2-2-2-2-2-2-2-2-2-2-2-2-2-2-2-| x4
D|-5-5-5-5-5-4-4-4-2-2-2-2-2-2-2-2-|
A|-0-0-0-0-0-0-0-0-0-0-0-0-0-0-0-0-|
E|---------------------------------|

e|-3-3-3-3-2-2-2-2-----------|
B|-3-3-3-3-3-3-3-3-----------|
G|-0-0-0-0-2-2-2-2-2-2-2-2---| x4
D|-0-0-0-0-0-0-0-0-0-2-2-2---|
A|-x-x-x-x-----------0-0-0---|
E|-3-3-3-3-------------------|

Guitar Solo 3/Chorus
Malcolm and Angus both play through the chorus normally.
Angus overdubbed the licks here.

e|----|
B|----|
G|-x\-|
D|-x\-|
A|-x\-|
E|----|

e|----------------------|
B|---20^22~~~~~20^22~~~-|
G|----------------------|
D|----------------------|
A|----------------------|
E|----------------------|

              pb
e|------------------------------------------------|
B|----20-------20--------------------------20^22--|
G|-19^20----19^20r----19-17-------17^--17^--------|
D|--------------------------19-17-----------------|
A|------------------------------------------------|
E|------------------------------------------------|

e|----------------------------------------------------------|
B|-20^22~~~~-----19-17-------20-19-17----17-----------------|
G|----------------------19------------19----19-17~~~--------|
D|---------------------------------------------------19~~~~-|
A|----------------------------------------------------------|
E|----------------------------------------------------------|

e|-----------------------------------------|
B|-18^20~~~~-20-19-17-19-17----------------|
G|--------------------------19-17^~~~------|
D|----------------------------------19~~~~-|
A|-----------------------------------------|
E|-----------------------------------------|

e|--------------------------------------|
B|-17-----------20----------------------|
G|----19-17--19^20---17^19--17----------|
D|-----------------------------19~~~~\--|
A|--------------------------------------|
E|--------------------------------------|

                           Hold Bend
e|----------------------------------------|
B|----20------20------20---20-20-20-20-20-|
G|-19^20---19^20---19^20---19-19-19-19-19-|
D|----------------------------------------|
A|----------------------------------------|
E|----------------------------------------|

e|---------------------------------------------------------|
B|-20^22----18-17-18-17-18-17-17h18p17----17---------------|
G|-------------------------------------19----19-17---------|
D|-------------------------------------------------19~~~~--|
A|---------------------------------------------------------|
E|---------------------------------------------------------|

e|----|
B|----|
G|-2\-|
D|-2\-|
A|-0\-|
E|----|
 |
e|----|
B|----|
G|-2\-|
D|-2\-|
A|-0\-|
E|----|


                  2.Skies On Fire – AC/DC

Intro:

                                          G5             D5
E|-----------------|-----------------|----3----33--3---|-----------------|
B|-----------------|-----------------|-3333--3333--3---|-3---------------|
G|-----------------|-----------------|-2220--2200--0---|-2---------------|
D|-----------------|-----------------|-0000--0000--0---|-0---------------|
A|-----------------|-----------------|----x----xx--x---|-----------------|
E|-----------------|-----------------|----3----33--3---|-----------------|
 |
 |                                        G5             D
E|-----------------|-----------------|----3----33--3---|-----------------|
B|-----------------|-----------------|-3333--3333--3---|-3---------------|
G|-----------------|-----------------|-2220--2200--0---|-2---------------|
D|-----------------|-----------------|-0000--0000--0---|-0---------------|
A|-----------------|-----------------|----x----xx--x---|-0---------------|
E|-----------------|-----------------|----3----33--3---|-----------------|

Repeat last two bars 4 times.

Verse 1:

    A5 G5 F5   FD              C5 G5 D5
E|-----------------|       |-----------------|
B|-----------------|       |---------3-------|
G|-----------------|       |------0--2-------|
D|-------------37--|       |---5--0--0-------|
A|---7--5--3---35--|       |---3--x----------|
E|---5--3--1-------|       |------3----------|
 |                   x3    |
 |  A5 G5 F5               |   C5 G5 D5
E|-----------------|       |-----------------|
B|-----------------|       |---------3-------|
G|-----------------|       |---5-----2-------|
D|---7--5--3---33--|       |---5--5--0-------|
A|---7--5--3---3---|       |---3--5----------|
E|-----------------|       |------3----------|


    A5 G5 F5   FD              C5 G5 D5
E|-----------------|       |-----------------|
B|-----------------|       |---------3-------|
G|-----------------|       |------0--2-------|
D|-------------37--|       |---5--0--0-------|
A|---7--5--3---35--|       |---3--x----------|
E|---5--3--1-------|       |------3----------|
 |                   x3    |
 |  A5 G5 F5               |   C5 G5 D5
E|-----------------|       |-----------------|
B|-----------------|       |---------3-------|
G|-----------------|       |---5-----2-------|
D|---7--5--3---33--|       |---5--5--0-------|
A|---7--5--3---3---|       |---3--5----------|
E|-----------------|       |------3----------|

    C5 G5 D5
E|-----------------|
B|---------3-------|
G|------0--2-------|
D|---5--0--0-------|
A|---3--x----------|
E|------3----------|
 |                   x3
 |
E|-----------------|
B|---------3-------|
G|---5-----2-------|
D|---5--5--0-------|
A|---3--5----------|
E|------3----------|

Chorus 1:

      G5             D5                   G5             D5
E|----3----33--3---|-----------------|----3----33--3---|-----------------|
B|-3333--3333--3---|-3---------------|-3333--3333--3---|-3---------------|
G|-2220--2200--0---|-2---------------|-2220--2200--0---|-2---------------|
D|-0000--0000--0---|-0---------------|-0000--0000--0---|-0---------------|
A|----x----xx--x---|-----------------|----x----xx--x---|-----------------|
E|----3----33--3---|-----------------|----3----33--3---|-----------------|
 |
 |    G5             D                    G5             D
E|----3----33--3---|-----------------|----3----33--3---|-----------------|
B|-3333--3333--3---|-3---------------|-3333--3333--3---|-3---------------|
G|-2220--2200--0---|-2---------------|-2220--2200--0---|-2---------------|
D|-0000--0000--0---|-0---------------|-0000--0000--0---|-0---------------|
A|----x----xx--x---|-0---------------|----x----xx--x---|-0---------------|
E|----3----33--3---|-----------------|----3----33--3---|-----------------|


      G5             D5                   G5             D5
E|----3----33--3---|-----------------|----3----33--3---|-----------------|
B|-3333--3333--3---|-3---------------|-3333--3333--3---|-3---------------|
G|-2220--2200--0---|-2---------------|-2220--2200--0---|-2---------------|
D|-0000--0000--0---|-0---------------|-0000--0000--0---|-0---------------|
A|----x----xx--x---|-----------------|----x----xx--x---|-----------------|
E|----3----33--3---|-----------------|----3----33--3---|-----------------|
 |
 |    G5             D                    G5             D
E|----3----33--3---|-----------------|----3----33--3---|-----------------|
B|-3333--3333--3---|-3---------------|-3333--3333--3---|-3---------------|
G|-2220--2200--0---|-2---------------|-2220--2200--0---|-2---------------|
D|-0000--0000--0---|-0---------------|-0000--0000--0---|-0---------------|
A|----x----xx--x---|-0---------------|----x----xx--x---|-0---------------|
E|----3----33--3---|-----------------|----3----33--3---|-----------------|

Verse 2:

    A5 G5 F5   FD              C5 G5 D5
E|-----------------|       |-----------------|
B|-----------------|       |---------3-------|
G|-----------------|       |------0--2-------|
D|-------------37--|       |---5--0--0-------|
A|---7--5--3---35--|       |---3--x----------|
E|---5--3--1-------|       |------3----------|
 |                   x7    |                   x4
 |  A5 G5 F5               |   C5 G5 D5
E|-----------------|       |-----------------|
B|-----------------|       |---------3-------|
G|-----------------|       |---5-----2-------|
D|---7--5--3---33--|       |---5--5--0-------|
A|---7--5--3---3---|       |---3--5----------|
E|-----------------|       |------3----------|

Chorus 2:

      G5             D5                   G5             D5
E|----3----33--3---|-----------------|----3----33--3---|-----------------|
B|-3333--3333--3---|-3---------------|-3333--3333--3---|-3---------------|
G|-2220--2200--0---|-2---------------|-2220--2200--0---|-2---------------|
D|-0000--0000--0---|-0---------------|-0000--0000--0---|-0---------------|
A|----x----xx--x---|-----------------|----x----xx--x---|-----------------|
E|----3----33--3---|-----------------|----3----33--3---|-----------------|
 |
 |    G5             D                    G5             D
E|----3----33--3---|-----------------|----3----33--3---|-----------------|
B|-3333--3333--3---|-3---------------|-3333--3333--3---|-3---------------|
G|-2220--2200--0---|-2---------------|-2220--2200--0---|-2---------------|
D|-0000--0000--0---|-0---------------|-0000--0000--0---|-0---------------|
A|----x----xx--x---|-0---------------|----x----xx--x---|-0---------------|
E|----3----33--3---|-----------------|----3----33--3---|-----------------|


      G5             D5                   G5             D5
E|----3----33--3---|-----------------|----3----33--3---|-----------------|
B|-3333--3333--3---|-3---------------|-3333--3333--3---|-3---------------|
G|-2220--2200--0---|-2---------------|-2220--2200--0---|-2---------------|
D|-0000--0000--0---|-0---------------|-0000--0000--0---|-0---------------|
A|----x----xx--x---|-----------------|----x----xx--x---|-----------------|
E|----3----33--3---|-----------------|----3----33--3---|-----------------|
 |
 |    G5             D                    G5             D
E|----3----33--3---|-----------------|----3----33--3---|-----------------|
B|-3333--3333--3---|-3---------------|-3333--3333--3---|-3---------------|
G|-2220--2200--0---|-2---------------|-2220--2200--0---|-2---------------|
D|-0000--0000--0---|-0---------------|-0000--0000--0---|-0---------------|
A|----x----xx--x---|-0---------------|----x----xx--x---|-0---------------|
E|----3----33--3---|-----------------|----3----33--3---|-----------------|

Hold D chord for one more bar

Guitar Solo 1:

Angus (Solo):

                                                 P.H.
E|---------------------------|------------------------|
B|-13b15~~~~~~~13b15~~~~~~\--|------------------------|
G|------------------------\--|-10b--------------------|
D|------------------------\--|-------12-10-12~~~~10b--|
A|------------------------\--|------------------------|
E|---------------------------|------------------------|

E|-------------10----------------10-13---|-------------------------------|
B|----------10----13-10-------10---------|----13-15-13b15-15-13b15~~~~~\-|
G|-12b14----------------12b14------------|-/14---------------------------|
D|---------------------------------------|-------------------------------|
A|---------------------------------------|-------------------------------|
E|---------------------------------------|-------------------------------|

                                       P.H.----------------|
E|---------------------------------------------------------|
B|------------10-------------------------------------------|
G|-12b14r12~~~---12pb14-----10-12----10b~~~~---------------|
D|--------------------------------12--------12(10)\/10////-|
A|---------------------------------------------------------|
E|---------------------------------------------------------|

E|-------------------|-----10-13-13b-10~~~~-10-13b~10~-|
B|-------------------|-/13-----------------------------|
G|-5-5-5~~~-5-7~~~~\-|---------------------------------|
D|--------7----------|---------------------------------|
A|-------------------|---------------------------------|
E|-------------------|---------------------------------|

E|---------------------------------------|
B|-20b22~~~~~20b22~~~~~18b---------------|
G|---------------------------19~~~~~~~\\-|
D|---------------------------------------|
A|---------------------------------------|
E|---------------------------------------|

E|----17---17---17-------|
B|----18b--18b--18b------|
G|-----------------------|
D|-----------------------|
A|-----------------------|
E|-----------------------|

E|-20b22~~~~~20b22~~~~~20b22~~~~~~22----20--------------------------|
B|-----------------------------------22----20-22-18b~~~-------------|
G|-------------------------------------------------------19-19~~~~\-|
D|------------------------------------------------------------------|
A|------------------------------------------------------------------|
E|------------------------------------------------------------------|

E|----------------|
B|-13b15~~~~~~~~~~|
G|----------------|
D|----------------|
A|----------------|
E|----------------|


Angus and Malcolm (Rhythm):

    A5 G5 F5   FD              C5 G5 D5
E|-----------------|       |-----------------|
B|-----------------|       |---------3-------|
G|-----------------|       |------0--2-------|
D|-------------37--|       |---5--0--0-------|
A|---7--5--3---35--|       |---3--x----------|
E|---5--3--1-------|       |------3----------|
 |                   x7    |                   x4
 |  A5 G5 F5               |   C5 G5 D5
E|-----------------|       |-----------------|
B|-----------------|       |---------3-------|
G|-----------------|       |---5-----2-------|
D|---7--5--3---33--|       |---5--5--0-------|
A|---7--5--3---3---|       |---3--5----------|
E|-----------------|       |------3----------|

Then play the last two bars of the intro once, before blasting back
into the chorus.

Chorus/Guitar Solo 2:

Angus (Solo):

2:50

E|-------14-15-15b17-------14-15-14-----------------12-----|
B|-15~~~~---------------------------15-15~~~~~12h15---15~~~|
G|---------------------------------------------------------|
D|---------------------------------------------------------|
A|---------------------------------------------------------|
E|---------------------------------------------------------|

   P.H.
E|-13~~~~~-----------------------|
B|---------12b13r10-----15~~~~~\-|
G|-------------------------------|
D|-------------------------------|
A|-------------------------------|
E|-------------------------------|

E|-------15-16-17-16-15-13-15-13~~~~~----------|
B|-15-19-----------------------------15-13-15--|
G|---------------------------------------------|
D|---------------------------------------------|
A|---------------------------------------------|
E|---------------------------------------------|

E|-13b-13b~~~~13b-13b-13b------|
B|-----------------------------|
G|-----------------------------|
D|-----------------------------|
A|-----------------------------|
E|-----------------------------|

E|-------14-15~~~~-------15-15~~~~-|
B|-15-17-----------15-17-----------|
G|---------------------------------|
D|---------------------------------| x3
A|---------------------------------|
E|---------------------------------|

E|-13b15~~~~~-13----15-13----------13-----10~~~~~~~\-|
B|---------------15-------15-13-15----13-------------|
G|---------------------------------------------------|
D|---------------------------------------------------|
A|---------------------------------------------------|
E|---------------------------------------------------|

Angus and Malcolm (Rhythm):

Repeat Chorus underneath solo. End on D5

E|-----|
B|-3---|
G|-2---|
D|-0---|
A|-----|
E|-----|


                3.AC/DC:  BIG JACK (Album, Black Ice)
Transcribed by:  Jeff Martin
Tuning:  Standard

Intro:

ANGUS
|-------------|
|-------------|
|-4---4-----4-|
|-4-2-4-2-2-4-|
|-2-2-2-2-2-2-|
|---0---0-0---|

Verse:

ANGUS & MALCOM
|------------------------------:||
|------------------------------:||
|------------------------------:||
|-4-4-------4*-4---4-4-4-4-4-4-:|| X4
|-0h2-2-5-4-2--2-2-0h2-0h2-0h2-:||
|-----0----------0-------------:||
          *Optional (But, played for sure)

|---------------------:||     |-0-|
|---------------------:||     |-2-|
|---------------------:||     |-3-|
|-4-4-4-4-4-4-----4-4-:|| X4  |-0-| (On 4th time, play D,
|-2-2-0h2-0h2-5-4-2-2-:||     |-0-|  instead of last B)
|---------------------:||     |-0-|

Chorus:

ANGUS (Listen for timing)
|----------|-7-8-8-7-8-0----------------------------------:||
|-13-13-13-|-8-8-8-8-8-0-7-8-8-7-8-0----------------------:||
|-12-12-12-|-------------7-7-7-7-7-0-6-7-6-7-6-6-7-6-7-6--:||
|----------|----------------------------------7---------7-:||X4
|----------|----------------------------------------------:||
|----------|----------------------------------------------:||
Note:  there are surely different variations of this riff as
       it repeats.  Sometimes, single notes are played. This
       will get you in the right place though.

MALCOM:                                     End on:
|-0-0-0-0--|-0-000-0-000-------------:||    |-----|
|-3-3-3-3--|-3-333-3-333-------------:||    |-----|
|-2-2-2-2--|-0-000-2-222-2-222-2-222-:||    |-2---|
|-0-0-0-0--|-0-000-0-000-2-222-2-222-:||X4  |-2-2-|
|-0-0-0-0--|-0-000-0-000-0-000-0-000-:||    |-0-2-|
|----------|-3-333-------------------:||    |---0-|

Verse 2 = Verse 1
Chorus 2 = Chorus 1

MALCOM, SOLO
|-------------|-------------|---| |-------:||
|-------------|-------------|---| |-------:||
|-------------|-------------|-4-| |-4-7-9-:||
|-4-4---7-6-4-|-4-4---7-6-4-|-4-| |-4-7-9-:||X4
|-0h2-2-5-4-2-|-0h2-2-5-4-2-|-2-| |-2-5-7-:||
|-----0-------|-----0-------|---| |-------:||

|-----------------------------|
|-----------------------------|
|----------7------------------|
|----------7-9----------------|
|-77777777-5-77777777-5555555-|
|-----------------------------|

ANGUS, SOLO:
|-------------------------------|- Arggg....
|-12-12-12-12-12-10-10-10---9-7-|- I will post it later,
|-11-11-11-11-11-09h11-09-7-9-7-|- Outta time (again), sorry!
|-------------------------------|
|-------------------------------|
|-------------------------------|

Go back to the chorus, end it on B-A...

That's it, except, the solo, which I will post in a separate tab.

I am sure someone else can do it better anyways.  At least these are
the main parts.


             4.AC/DC - Anything Goes, from Black Ice
Transcribed by:  Jeff Martin
Tuning:  Standard

INTRO:
|ANGUS                          Fill 1 at 0:08 (Used often throughout)
|-----------------------:||    |-------------------------|
|-----------------------:||    |-15-15-15-15-15-15-15-15-|
|-7-777-6-4-2-2---------:||    |-------------------------|
|-7-777-7-5-0-0-0000000-:||    |-------------------------|
|-----------------------:||    |-------------------------|
|-----------------------:||X4  |-USE-VERBRATO>>>---------|
|
|MALCOM
|-----------------------:||
|-----------------------:||
|-----------------------:||
|-7-7-7-7-7-7-7-7-7-7-7-:||
|-5-5-5-5-5-5-5-5-5-5-5-:||
|-PM>>>-----------------:||X4
|
|GUITAR 3 (Could be Angus & listen close for the timing)
|-14-14-14-14-14-14-12-10-10-12-10-10-12-:||
|-10-10-10-10-10-10-10-10-10-10-10-10-10-:||
|-11-11-11-11-11-11-11-11-11-11-11-11-11-:||
|----------------------------------------:||
|----------------------------------------:||
|-FINGER PICKING>>>----------------------:||X2 Continued...

GUITAR 3 Cont:
|-14-14-14-14-14-14-14-14-15-15-15-15-15-15-15-14-14-14-12-10-10-|
|-10-10-10-10-10-10-10-10-10-10-10-10-10-10-10-10-10-10-10-10-10-|
|-11-11-11-11-11-11-11-11-11-11-11-11-11-11-11-11-11-11-11-11-11-|
|----------------------------------------------------------------|
|----------------------------------------------------------------|
|-FINGER PICKING>>>----------------------------------------------|X1

VERSE 1
|ANGUS
|-----------------------:||
|-----------------------:||
|-7-777-6-4-2-2---------:||
|-7-777-7-5-0-0-0000000-:||
|-----------------------:||
|-----------------------:||X2
|
|MALCOM
|-----------------------:||
|-----------------------:||
|-----------------------:||
|-7-7-7-7-7-7-7-7-7-7-7-:||
|-5-5-5-5-5-5-5-5-5-5-5-:||
|-PM>>>-----------------:||X2

|ANGUS (*Riff Variation 2)
|-----------------------:||
|-----------------------:||
|-7-777-6-4-2-2-4-2-2-4-:||
|-7-777-7-5-0-0-0-0-0-0-:||
|-----------------------:||
|-----------------------:||X2
|
|MALCOM
|-----------------------:||
|-----------------------:||
|-----------------------:||
|-7-7-7-7-7-7-7-7-7-7-7-:||
|-5-5-5-5-5-5-5-5-5-5-5-:||
|-PM>>>-----------------:||X2

CHORUS
|ANGUS
|-3---------------3---------------3-------|
|-3---------------3---------------3-------|
|-0---------------0---------------0-------|
|-0---------------0---------------0-------|
|-0---------------0---------------0-------|
|-3---------------3---------------3-------|
|
|MALCOM
|-----------------------------------------|
|-----------------------------------------|
|-----------------------------------------|
|-5---------------5---------------5-------|
|-5---------------5---------------5-------|
|-3-3-3-3-3-3-3-3-3-3-3-3-3-3-3-3-3-3-3-3-|

|ANGUS (Mix in Riff 2)          Fill 1 (USED OFTEN!!)
|-----------------------:||    |-------------------------|
|-----------------------:||    |-15-15-15-15-15-15-15-15-|
|-7-777-6-4-2-2---------:||    |-------------------------|
|-7-777-7-5-0-0-0000000-:||    |-------------------------|
|-----------------------:||    |-------------------------|
|-----------------------:||X4  |-USE-VERBRATO>>>---------|
|
|MALCOM                         MALCOM Ends on:
|-----------------------:||    |-------------0-0---------|
|-----------------------:||    |-------------3-3---------|
|-----------------------:||    |-7-7-7-7-6-4-2-2---------|
|-7-7-7-7-7-7-7-7-7-7-7-:||    |-7-7-7-7-6-4-0-0---------|
|-5-5-5-5-5-5-5-5-5-5-5-:||    |-5-5-5-5-4-2-0-0---------|
|-PM>>>-----------------:||X3  |-------------------------|X1

VERSE 2 = VERSE 1
CHORUS 2 = CHORUS 1

BRIDGE
|ANGUS (I will keep it all together here)
|-12-12-10-10-12-12-10-10-12-12-10-10-12-12-12-10-|
|-10-10-10-10-10-10-10-10-10-10-10-10-10-10-10-10-|
|-11-11-11-11-11-11-11-11-11-11-11-11-11-11-11-11-|
|-------------------------------------------------|
|-------------------------------------------------|
|-FINGER PICKING>>>-------------------------------|Continued>>>
>>>
|-14-14-14-14-14-14-14-12-14-14-14-14-12-14-12-14-|
|-10-10-10-10-10-10-10-10-10-10-10-10-10-10-10-10-|
|-11-11-11-11-11-11-11-11-11-11-11-11-11-11-11-11-|
|-------------------------------------------------|
|-------------------------------------------------|
|-FINGER PICKING>>>-------------------------------|Continued>>>
>>>
|-12-12-10-10-12-12-10-10-12-12-10-10-12-12-10-10-|
|-10-10-10-10-10-10-10-10-10-10-10-10-10-10-10-10-|
|-11-11-11-11-11-11-11-11-11-11-11-11-11-11-11-11-|
|-------------------------------------------------|
|-------------------------------------------------|
|-FINGER PICKING>>>-------------------------------|Continued>>>
>>>
|-10-10-10-10-15-15-15-15-15-15-15-15-|
|-10-10-10-10-10-10-10-10-10-10-10-10-|
|-11-11-11-11-11-11-11-11-11-11-11-11-|
|-------------------------------------|
|-------------------------------------|
|-------------------------------------|
|
|
|MALCOM (Close Tab, sorry, they're 16th notes, I guess)
|-------------------------------------------------------------------|
|-------------------------------------------------------------------|
|-------------------------------------------------------------------|
|-2222222222222222-4444444444444444-222222222222222-222222222222222-|
|-0000000000000000-2222222222222222-000000000000000-000000000000000-|
|-------------------------------------------------------------------|
***The A & B's are played behind all the finger picking****

|ANGUS' SOLO
|--------10-------10------10----10-10------------------|
|------10-------10------10------10-10------10-10/15-15-|
|-12b14----12b14---12b14---12b14------12b14------------|
|------------------------------------------------------|
|------------------------------------------------------|
|------------------------------------------------------|

|--------10-------10------10----10-10---------------------------------|
|------10-------10------10------10-10------10h13p10h13p10h13p10h13p10-|
|-12b14----12b14---12b14---12b14------12b14---------------------------|
|---------------------------------------------------------------------|
|---------------------------------------------------------------------|
|---------------------------------------------------------------------|
***These are like 64th notes, super fast anyways****V
|-*10-10-10-10-12-13-13-13-13-10-7-10-7-10-7-13-13-13-13-13/-|
|------------------------------------------------------------|
|------------------------------------------------------------|
|------------------------------------------------------------|
|------------------------------------------------------------|
|------------------------------------------------------------|

|------10-10-----10--10-------10-10-10-10-10-10-|
|------------------12--12-10--------------------|
|-12b14-----12b14--12--12-11--------------------|
|---------------------------12------------------|
|-----------------------------------------------|
|-----------------------------------------------|

|------10--------10-------10-10-10--------------|
|---------------------------------12-10---------|
|-12b14--12b14-14-14-14-14--------12-11---------|
|-----------------------------------------------|
|-----------------------------------------------|
|-----------------------------------------------|
|
|MALCOM (Behind Solo, listen for timing, these are just the chords)
|-------|
|-------|
|-7---7-|
|-7-5-7-|
|-5-5-5-|
|---3---|
|
|Guitar 3 plays Riff Variation 2, from above

Bridge (AGAIN!) Then...

JUST ANGUS FINGER PICKING
|-14-14-14-14-14-14-14-12-12-10-10-10-10-12-10-10-10-10-10-12-10-10-12-10-10-|
|-10-10-10-10-10-10-10-10-10-10-10-10-10-10-10-10-10-10-10-10-10-10-10-10-10-|
|-11-11-11-11-11-11-11-11-11-11-11-11-11-11-11-11-11-11-11-11-11-11-11-11-11-|
|----------------------------------------------------------------------------|
|----------------------------------------------------------------------------|
|----------------------------------------------------------------------------|

Use Intro from here, with ANGUS (Guitar 3) FINGER PICKING

Well,that's the best that I could do... TIA for corrections!!!

                          5.War Machine by AC/DC
from Black Ice

  G  E  D  E
e-3--0--2--0--|
B-3--0--3--0--|
G-0--1--2--1--|
D-0--2--0--2--|
A-2--2-----2--|
E-3--0-----0--|

e-------5----------5----|
B-8p5-5---5--8p5-5---5--|
G-----------------------|
D-----------------------|
A-----------------------|
E-----------------------|

Main Riff
e--------------|
B--------------|
G--------------|
D-------2------|
A-2-2-2-0-2----|
E-3-0-0---0----|

Chorus
e-----------------|
B-----------------|
G----------7-7----|
D-7-7-7-7--7-7-7--|
A-7-7-7-7--5-5-7--|
E-5-5-5-5------5--|

Any corrections please comment
Thanks

                        6.Smash N' Grab

Ac/Dc
Black Ice

|-Angus---||
|          |
|-Malcolm-||

 I split songs into parts/chunks. NOT MEASURES.
So don't let that confuse you. This is a fairly easy song,
even funner to play. Thanks to Playinbass1432 for parts of the solo.

e|----------------------||
B|-10~~~~---------------||
G|---------7~~~~-5~~~~~-||
D|----------------------||
A|----------------------||
E|----------------------||
 |                       |x2
 |                       |
e|----------------------||
B|-------3--------------||
G|-2-2-0-2--------------||
D|-2-2-0-0--------------||
A|-0-0------------------||
E|-----3----------------||


e|-------------------|
B|-3-3-3-3--3--3-----|(Both Malcolm and Angus)
G|-2-2-2-2--0--2--2--|
D|-0-0-0-0--0--0--2--|x4
A|----------------0--|
E|-------------------|

e|----------------------|-------------------||
B|-10~~~~---------------|-------------------||
G|---------7~~~~-5~~~~~-|-------------------||
D|----------------------|-------------------||
A|----------------------|-------------------||
E|----------------------|-------------------||
 |                                           |x2
 |                                           |
e|----------------------|-------------------||
B|-------3--------------|-------3-----------||
G|-2-2-0-2--------------|-2-2-0-2-----------||
D|-2-2-0-0--------------|-2-2-0-0-----------||
A|-0-0------------------|-0-0---------------||
E|-----3----------------|-----3-------------||

Verse:
e|-------------------|
B|-3-3-3-3--3--3-----|
G|-2-2-2-2--0--2--2--|
D|-0-0-0-0--0--0--2--|x4
A|----------------0--|
E|-------------------|

e|-----------------------------------------------------------------|
B|---------------------------------3-3-3-3-3-3-3-3-3-3-3-3-3-3-3-3-|
G|-5-5-5-5-5-5-5-5-----------------2-2-2-2-2-2-2-2-2-2-2-2-2-2-2-2-|
D|-5-5-5-5-5-5-5-5-3-3-3-3-3-3-3-3-0-0-0-0-0-0-0-0-0-0-0-0-0-0-0-0-|
A|-3-3-3-3-3-3-3-3-3-3-3-3-3-3-3-3---------------------------------|
E|-----------------1-1-1-1-1-1-1-1---------------------------------|

Chorus:
e|----------------------------|---3-3-3-3-3-3-3-3-3-3-3-3-3-3-3-|
B|-------3-3-3--3--3-3-3--3-3-|---3-3-3-3-3-3-3-3-3-3-3-3-3-3-3-|
G|-2---2-2-2-2--0--0-0-2--2-2-|---0-0-0-0-0-0-0-0-0-0-0-0-0-0-0-|
D|-2---2-0-0-0--0--0-0-0--0-0-|x3-0-0-0-0-0-0-0-0-0-0-0-0-0-0-0-|
A|-0---0----------------------|---------------------------------|
E|--------------3--3-3--------|---3-3-3-3-3-3-3-3-3-3-3-3-3-3-3-|

Verse:
e|-------------------|
B|-3-3-3-3--3--3-----|
G|-2-2-2-2--0--2--2--|
D|-0-0-0-0--0--0--2--|x4
A|----------------0--|
E|-------------------|

e|-----------------------------------------------------------------|
B|---------------------------------3-3-3-3-3-3-3-3-3-3-3-3-3-3-3-3-|
G|-5-5-5-5-5-5-5-5-----------------2-2-2-2-2-2-2-2-2-2-2-2-2-2-2-2-|
D|-5-5-5-5-5-5-5-5-3-3-3-3-3-3-3-3-0-0-0-0-0-0-0-0-0-0-0-0-0-0-0-0-|
A|-3-3-3-3-3-3-3-3-3-3-3-3-3-3-3-3---------------------------------|
E|-----------------1-1-1-1-1-1-1-1---------------------------------|


Chorus:

e|----------------------------|---3-3-3-3-3-3-3-3-3-3-3-3-3-3-3-|
B|-------3-3-3--3--3-3-3--3-3-|---3-3-3-3-3-3-3-3-3-3-3-3-3-3-3-|
G|-2---2-2-2-2--0--0-0-2--2-2-|---0-0-0-0-0-0-0-0-0-0-0-0-0-0-0-|
D|-2---2-0-0-0--0--0-0-0--0-0-|x3-0-0-0-0-0-0-0-0-0-0-0-0-0-0-0-|
A|-0---0----------------------|---------------------------------|
E|--------------3--3-3--------|---3-3-3-3-3-3-3-3-3-3-3-3-3-3-3-|

e|----------------------|-------------------||
B|-10~~~~---------------|-------------------||
G|---------7~~~~-5~~~~~-|-------------------||
D|----------------------|-------------------||
A|----------------------|-------------------||
E|----------------------|-------------------||
 |                                           |x2
 |                                           |
e|----------------------|-------------------||
B|-------3--------------|-------3-----------||
G|-2-2-0-2--------------|-2-2-0-2-----------||
D|-2-2-0-0--------------|-2-2-0-0-----------||
A|-0-0------------------|-0-0---------------||
E|-----3----------------|-----3-------------||


Solo: (Thanks to Playinbass1432 for some parts)
e|--------------------------|-------------------|
B|-------12b~-12b~----------|-15b17-13-15-------|
D|-------12b~-12b~--7p5---7-|-------------14~~\-|
D|-x\\\\----------------5---|-------------------|
A|-x\\\\--------------------|-------------------|
E|-x\\\\--------------------|-------------------|

e|---------------------------------------|
B|-18b20--17-16-15--13-15----15b17-15b17-|
G|------------------------14-------------|
D|---------------------------------------|
A|---------------------------------------|
E|---------------------------------------|

e|-------------15--------15----------------|
B|-15b17-15b17----15b17-----15b17-15b17r13-|
G|-----------------------------------------|
D|-----------------------------------------|
A|-----------------------------------------|
E|-----------------------------------------|

e|------------|------------------------------------------|
B|------------|-15b17-17-15b17-17-15b17-17-15b17-17r15\--|
G|-14~~~~~~---|------------------------------------------|
D|------------|------------------------------------------|
A|------------|------------------------------------------|
E|------------|------------------------------------------|
 |                                                       |
 |                                                       |
e|------------|------------------------------------------|
B|-20b22~~~---|------------------------------------------|
G|------------|------------------------------------------|
D|------------|------------------------------------------|
A|------------|------------------------------------------|
E|------------|------------------------------------------|

e|--------15-12-------------------------------|---------------------|
B|-18b20--------15-13-15p13-15-13~------------|-15b17-13------------|
G|-20~~~---------------------------14p12-14~\-|----------14--12-14\-|
D|--------------------------------------------|---------------------|
A|--------------------------------------------|---------------------|
E|--------------------------------------------|---------------------|

e|-----------------|
B|-----------------|
G|-----------------|
D|-7-5-------------|
A|-----7-5--3/12\0-|
E|-----------------|

e|----------------------------------15-17-----------17--------------|
B|---------------------------15b17--------17--20b22----20-20b22~~~~\|
G|-----5---5------7~~~-9~~~-----------------------------------------|
D|-x-x---x---7--x---------------------------------------------------|
A|------------------------------------------------------------------|
E|------------------------------------------------------------------|

Rhythm Guitar for Solo:
e|------------------------------------------------------------------|
B|---------------------------------3-3-3-3-3-3-3-3------------------|
G|-2-2-2-2-2-2-2-2-----------------2-2-2-2-2-2-2-2------------------|
D|-2-2-2-2-2-2-2-2-3-3-3-3-3-3-3-3-0-0-0-0-0-0-0-0-5-5-5-5-5-5-x--5-|
A|-0-0-0-0-0-0-0-0-3-3-3-3-3-3-3-3-----------------5-5-5-5-5-5-x--5-|
E|-----------------1-1-1-1-1-1-1-1-----------------3-3-3-3-3-3-x--3-|

e|----------------------------|---------------------------------------|
B|-------3-3-3--3--3-3-3--3-3-|---3-3-3-3-3-3-3-3-3-3-3-3-3-3-3-------|
G|-2---2-2-2-2--0--0-0-2--2-2-|---2-2-2-2-2-2-2-2-2-2-2-2-2-2-2-2~~~~-|
D|-2---2-0-0-0--0--0-0-0--0-0-|x3-0-0-0-0-0-0-0-0-0-0-0-0-0-0-0-2~~~~-|
A|-0---0----------------------|---------------------------------0~~~~-|
E|--------------3--3-3--------|---------------------------------------|

e|----------------------|-------------------||
B|-10~~~~---------------|-------------------||
G|---------7~~~~-5~~~~~-|-------------------||
D|----------------------|-------------------||
A|----------------------|-------------------||
E|----------------------|-------------------||
 |                                           |
 |                                           |
e|----------------------|-------------------||
B|-------3--------------|-------3~~~~~~-----||
G|-2-2-0-2--------------|-2-2-0-2~~~~~~-----||
D|-2-2-0-0--------------|-2-2-0-0~~~~~~-----||
A|-0-0------------------|-0-0---------------||
E|-----3----------------|-----3-------------||

e|----------------------|-------------------------||
B|-10~~~~---------------|-------------------------||
G|---------7~~~~-5~~~~~-|---------5b-5b-5b\2~~~~~-||
D|----------------------|-------------------------||
A|----------------------|-------------------------||
E|----------------------|-------------------------||
 |                                                 |
 |                                                 |
e|----------------------|-------------------------||
B|-------3--------------|-------3~~~~~~-----------||
G|-2-2-0-2--------------|-2-2-0-2~~~~~~-----------||
D|-2-2-0-0--------------|-2-2-0-0~~~~~~-----------||
A|-0-0------------------|-0-0---------------------||
E|-----3----------------|-----3-------------------||

e|----------------------|--------15h16-15-13-15b15.5-|
B|-10~~~~---------------|----------------------------|
G|---------7~~~~-5~~~~~-|----------------------------|
D|----------------------|----------------------------|
A|----------------------|----------------------------|
E|----------------------|----------------------------|
 |
 |
e|----------------------|----------------------------|
B|-------3--------------|-------3~~~~~~--------------|
G|-2-2-0-2--------------|-2-2-0-2~~~~~~--------------|
D|-2-2-0-0--------------|-2-2-0-0~~~~~~--------------|
A|-0-0------------------|-0-0------------------------|
E|-----3----------------|-----3----------------------|

----------------------------------||
15p13-15-13-------13----15-13~~\--||
------------14-14----14-----------||
----------------------------------||
----------------------------------||
----------------------------------||
                                   |
                                   |
----------------------------------||
----------------------------------||
----------------------------------||
----------------------------------||
----------------------------------||
----------------------------------||

e|----------------------|-------------------||
B|-10~~~~---------------|----------15~~~~~--||
G|---------7~~~~-5~~~~~-|-14-14-14----------||
D|----------------------|-------------------||
A|----------------------|-------------------||
E|----------------------|-------------------||
 |                                           |
 |                                           |
e|----------------------|-------------------||
B|-------3--------------|----------3~~~~~~--||
G|-2-2-0-2--------------|-2--2--0--2~~~~~~--||
D|-2-2-0-0--------------|-2--2--0--0~~~~~~--||
A|-0-0------------------|-0-----------------||
E|-----3----------------|-------3-----------||

Any questions? Post a comment and take yur time to rate the tab. I took time
to make it.

                        7.Spoilin' For A Fight

Tabbed By: ACDCrox74
Tuning: Standard

Legend:
p= pull off
h= hammer on
b= bend
/= slide
~= vibrato

Guitar 1: Angus Young
Guitar 2: Malcom Young

Intro:
Guitar 1
e|------------|
B|------------|
G|-4-4-4-4-4--|
D|-4-4-4-4-4--|
A|-2-2-0-2-2--|
E|------------|

Guitar 1
e|---------------------7---7------7--7------|
B|----------------10p7--7--7---10----7--7b--|
G|-4-4-4-4-4----9b-----------9b---------9b--|
D|-4-4-4-4-4--------------------------------|
A|-2-2-0-2-2--------------------------------|
E|------------------------------------------|

Guitar 2
e|------------------------------------------|
B|------------------------------------------|
G|-4-4-4-4-4-----------------7--7-7-7-4-----|
D|-4-4-4-4-4-----------------7--7-7-7-4-----|
A|-2-2-0-2-2-----------------5--5-4-4-2-----|
E|------------------------------------------|


Verse:
Guitar 1
e|------------|
B|------------|
G|-4-4-4-4-4--|
D|-4-4-4-4-4--|
A|-2-2-0-2-2--|
E|------------|

Guitar 2
e|------------|
B|------------|
G|-4-4-4-4-4--|
D|-4-4-4-4-4--|
A|-2-2-0-2-2--|
E|------------|


Guitar 1
e|------------------------------------------|
B|------------------------------------------|
G|-4-4-4-4-4-----------------7--7-7-7-4-----|
D|-4-4-4-4-4-----------------7--7-7-7-4-----|
A|-2-2-0-2-2-----------------5--5-4-4-2-----|
E|------------------------------------------|

Guitar 2
e|------------------------------------------|
B|------------------------------------------|
G|-4-4-4-4-4-----------------7--7-7-7-4-----|
D|-4-4-4-4-4-----------------7--7-7-7-4-----|
A|-2-2-0-2-2-----------------5--5-4-4-2-----|
E|------------------------------------------|


Guitar 1
e|------------|
B|------------|
G|-4-4-4-4-4--|
D|-4-4-4-4-4--|
A|-2-2-0-2-2--|
E|------------|

Guitar 2
e|------------|
B|------------|
G|-4-4-4-4-4--|
D|-4-4-4-4-4--|
A|-2-2-0-2-2--|
E|------------|


Guitar 1
e|------------------------------------------|
B|------------------------------------------|
G|-4-4-4-4-4-----------------7--7-7-7-4-----|
D|-4-4-4-4-4-----------------7--7-7-7-4-----|
A|-2-2-0-2-2-----------------5--5-4-4-2-----|
E|------------------------------------------|

Guitar 2
e|------------------------------------------|
B|------------------------------------------|
G|-4-4-4-4-4-----------------7--7-7-7-4-----|
D|-4-4-4-4-4-----------------7--7-7-7-4-----|
A|-2-2-0-2-2-----------------5--5-4-4-2-----|
E|------------------------------------------|


Guitar 1
e|------------|
B|------------|
G|-4-4-4-4-4--|
D|-4-4-4-4-4--|
A|-2-2-0-2-2--|
E|------------|

Guitar 2
e|------------|
B|------------|
G|-4-4-2-1-4--|
D|-4-4-2-2-4--|
A|-2-2-----2--|
E|------------|


Guitar 1
e|------------------------------------------|
B|------------------------------------------|
G|-4-4-4-4-4-----------------7--7-7-7-4-----|
D|-4-4-4-4-4-----------------7--7-7-7-4-----|
A|-2-2-0-2-2-----------------5--5-4-4-2-----|
E|------------------------------------------|

Guitar 2
e|-------------------------------------------|
B|-------------------------------------------|
G|-4-4-2-1-4-----------------7--7-7-7-4------|
D|-4-4-2-2-4-----------------7--7-7-7-4------|
A|-2-2-----2-----------------5--5-4-4-2------|
E|-------------------------------------------|


Guitar 1
e|------------|
B|------------|
G|-4-4-4-4-4--|
D|-4-4-4-4-4--|
A|-2-2-0-2-2--|
E|------------|

Guitar 2
e|------------|
B|------------|
G|-4-4-2-1-4--|
D|-4-4-2-2-4--|
A|-2-2-----2--|
E|------------|


Guitar 1
e|------------------------------------------|
B|------------------------------------------|
G|-4-4-4-4-4-----------------7--7-7-7-4-----|
D|-4-4-4-4-4----11b11p9------7--7-7-7-4-----|
A|-2-2-0-2-2-----------------5--5-4-4-2-----|
E|------------------------------------------|

Guitar 2
e|-------------------------------------------|
B|-------------------------------------------|
G|-4-4-2-1-4-----------------7--7-7-7-4------|
D|-4-4-2-2-4-----------------7--7-7-7-4------|
A|-2-2-----2-----------------5--5-4-4-2------|
E|-------------------------------------------|


Pre-Chorus:
Guitar 1
e|-----------------------|
B|-----------------------|
G|-1----1----1------2----|
D|-2----2----2------2----|
A|-2----2----2------0----|
E|-0----0----0-----------|

Guitar 2
e|-----------------------|
B|-----------------------|
G|-1----1----1------2----|
D|-2----2----2------2----|
A|-2----2----2------0----|
E|-0----0----0-----------|


Chorus:
Guitar 1
e|---------------------7---7------7--7------|
B|----------------10p7--7--7---10----7--7b--|
G|-4-4-4-4-4----9b-----------9b---------9b--|
D|-4-4-4-4-4--------------------------------|
A|-2-2-0-2-2--------------------------------|
E|------------------------------------------|

Guitar 2
e|------------------------------------------|
B|------------------------------------------|
G|-4-4-4-4-4-----------------7--7-7-7-4-----|
D|-4-4-4-4-4-----------------7--7-7-7-4-----|
A|-2-2-0-2-2-----------------5--5-4-4-2-----|
E|------------------------------------------|


Guitar 1
e|---------------------7---7------7--7------|
B|----------------10p7--7--7---10----7--7b--|
G|-4-4-4-4-4----9b-----------9b---------9b--|
D|-4-4-4-4-4--------------------------------|
A|-2-2-0-2-2--------------------------------|
E|------------------------------------------|

Guitar 2
e|------------------------------------------|
B|------------------------------------------|
G|-4-4-4-4-4-----------------7--7-7-7-4-----|
D|-4-4-4-4-4-----------------7--7-7-7-4-----|
A|-2-2-0-2-2-----------------5--5-4-4-2-----|
E|------------------------------------------|


Guitar 1
e|---------------------7---7------7--7------|
B|----------------10p7--7--7---10----7--7b--|
G|-4-4-4-4-4----9b-----------9b---------9b--|
D|-4-4-4-4-4--------------------------------|
A|-2-2-0-2-2--------------------------------|
E|------------------------------------------|

Guitar 2
e|------------------------------------------|
B|------------------------------------------|
G|-4-4-4-4-4-----------------7--7-7-7-4-----|
D|-4-4-4-4-4-----------------7--7-7-7-4-----|
A|-2-2-0-2-2-----------------5--5-4-4-2-----|
E|------------------------------------------|


Guitar 1
e|-10~------7--|          |----------|
B|-----7b-7-7--|          |----------|
G|-----9b------| x3 then: |----------|
D|-------------|          |-2-2-2-2--|
A|-------------|          |-2-2-2-2--|
E|-------------|          |-0-0-0-0--|

Guitar 2
e|------------|           |----------|
B|------------|           |----------|
G|-4-4-4-4-4--| x3 then:  |----------|
D|-4-4-4-4-4--|           |-2-2-2-2--|
A|-2-2-0-2-2--|           |-2-2-2-2--|
E|------------|           |-0-0-0-0--|


Verse:
Guitar 1
e|------------|
B|------------|
G|-4-4-4-4-4--|
D|-4-4-4-4-4--|
A|-2-2-0-2-2--|
E|------------|

Guitar 2
e|------------|
B|------------|
G|-4-4-4-4-4--|
D|-4-4-4-4-4--|
A|-2-2-0-2-2--|
E|------------|


Guitar 1
e|------------------------------------------|
B|------------------------------------------|
G|-4-4-4-4-4-----------------7--7-7-7-4-----|
D|-4-4-4-4-4-----------------7--7-7-7-4-----|
A|-2-2-0-2-2-----------------5--5-4-4-2-----|
E|------------------------------------------|

Guitar 2
e|------------------------------------------|
B|------------------------------------------|
G|-4-4-4-4-4-----------------7--7-7-7-4-----|
D|-4-4-4-4-4-----------------7--7-7-7-4-----|
A|-2-2-0-2-2-----------------5--5-4-4-2-----|
E|------------------------------------------|


Guitar 1
e|------------|
B|------------|
G|-4-4-4-4-4--|
D|-4-4-4-4-4--|
A|-2-2-0-2-2--|
E|------------|

Guitar 2
e|------------|
B|------------|
G|-4-4-4-4-4--|
D|-4-4-4-4-4--|
A|-2-2-0-2-2--|
E|------------|


Guitar 1
e|------------------------------------------|
B|------------------------------------------|
G|-4-4-4-4-4-----------------7--7-7-7-4-----|
D|-4-4-4-4-4-----------------7--7-7-7-4-----|
A|-2-2-0-2-2-----------------5--5-4-4-2-----|
E|------------------------------------------|

Guitar 2
e|------------------------------------------|
B|------------------------------------------|
G|-4-4-4-4-4-----------------7--7-7-7-4-----|
D|-4-4-4-4-4-----------------7--7-7-7-4-----|
A|-2-2-0-2-2-----------------5--5-4-4-2-----|
E|------------------------------------------|


Guitar 1
e|------------|
B|------------|
G|-4-4-4-4-4--|
D|-4-4-4-4-4--|
A|-2-2-0-2-2--|
E|------------|

Guitar 2
e|------------|
B|------------|
G|-4-4-2-1-4--|
D|-4-4-2-2-4--|
A|-2-2-----2--|
E|------------|


Guitar 1
e|------------------------------------------|
B|------------------------------------------|
G|-4-4-4-4-4-----------------7--7-7-7-4-----|
D|-4-4-4-4-4-----------------7--7-7-7-4-----|
A|-2-2-0-2-2-----------------5--5-4-4-2-----|
E|------------------------------------------|

Guitar 2
e|-------------------------------------------|
B|-------------------------------------------|
G|-4-4-2-1-4-----------------7--7-7-7-4------|
D|-4-4-2-2-4-----------------7--7-7-7-4------|
A|-2-2-----2-----------------5--5-4-4-2------|
E|-------------------------------------------|


Guitar 1
e|------------|
B|------------|
G|-4-4-4-4-4--|
D|-4-4-4-4-4--|
A|-2-2-0-2-2--|
E|------------|

Guitar 2
e|------------|
B|------------|
G|-4-4-2-1-4--|
D|-4-4-2-2-4--|
A|-2-2-----2--|
E|------------|


Guitar 1
e|------------------------------------------|
B|------------------------------------------|
G|-4-4-4-4-4-----------------7--7-7-7-4-----|
D|-4-4-4-4-4----11b11p9------7--7-7-7-4-----|
A|-2-2-0-2-2-----------------5--5-4-4-2-----|
E|------------------------------------------|

Guitar 2
e|-------------------------------------------|
B|-------------------------------------------|
G|-4-4-2-1-4-----------------7--7-7-7-4------|
D|-4-4-2-2-4-----------------7--7-7-7-4------|
A|-2-2-----2-----------------5--5-4-4-2------|
E|-------------------------------------------|


Pre-Chorus:
Guitar 1
e|-----------------------|
B|-----------------------|
G|-1----1----1------2----|
D|-2----2----2------2----|
A|-2----2----2------0----|
E|-0----0----0-----------|

Guitar 2
e|-----------------------|
B|-----------------------|
G|-1----1----1------2----|
D|-2----2----2------2----|
A|-2----2----2------0----|
E|-0----0----0-----------|


Chorus:
Guitar 1
e|---------------------7---7------7--7------|
B|----------------10p7--7--7---10----7--7b--|
G|-4-4-4-4-4----9b-----------9b---------9b--|
D|-4-4-4-4-4--------------------------------|
A|-2-2-0-2-2--------------------------------|
E|------------------------------------------|

Guitar 2
e|------------------------------------------|
B|------------------------------------------|
G|-4-4-4-4-4-----------------7--7-7-7-4-----|
D|-4-4-4-4-4-----------------7--7-7-7-4-----|
A|-2-2-0-2-2-----------------5--5-4-4-2-----|
E|------------------------------------------|


Guitar 1
e|---------------------7---7------7--7------|
B|----------------10p7--7--7---10----7--7b--|
G|-4-4-4-4-4----9b-----------9b---------9b--|
D|-4-4-4-4-4--------------------------------|
A|-2-2-0-2-2--------------------------------|
E|------------------------------------------|

Guitar 2
e|------------------------------------------|
B|------------------------------------------|
G|-4-4-4-4-4-----------------7--7-7-7-4-----|
D|-4-4-4-4-4-----------------7--7-7-7-4-----|
A|-2-2-0-2-2-----------------5--5-4-4-2-----|
E|------------------------------------------|


Guitar 1
e|---------------------7---7------7--7------|
B|----------------10p7--7--7---10----7--7b--|
G|-4-4-4-4-4----9b-----------9b---------9b--|
D|-4-4-4-4-4--------------------------------|
A|-2-2-0-2-2--------------------------------|
E|------------------------------------------|

Guitar 2
e|------------------------------------------|
B|------------------------------------------|
G|-4-4-4-4-4-----------------7--7-7-7-4-----|
D|-4-4-4-4-4-----------------7--7-7-7-4-----|
A|-2-2-0-2-2-----------------5--5-4-4-2-----|
E|------------------------------------------|


Guitar 1
e|-10~------7--|          |----------|
B|-----7b-7-7--|          |----------|
G|-----9b------| x3 then: |----------|
D|-------------|          |-2-2-2-2--|
A|-------------|          |-2-2-2-2--|
E|-------------|          |-0-0-0-0--|

Guitar 2
e|------------|           |----------|
B|------------|           |----------|
G|-4-4-4-4-4--| x3 then:  |----------|
D|-4-4-4-4-4--|           |-2-2-2-2--|
A|-2-2-0-2-2--|           |-2-2-2-2--|
E|------------|           |-0-0-0-0--|

Outro:
Guitar 1
e|------------|
B|------------|
G|-4-4-4-4-4--| x3
D|-4-4-4-4-4--|
A|-2-2-0-2-2--|
E|------------|

Guitar 2
e|------------|
B|------------|
G|-4-4-4-4-4--| x3
D|-4-4-4-4-4--|
A|-2-2-0-2-2--|
E|------------|


Guitar 1
e|----------|
B|----------|
G|----------|
D|-2-2-2-2--|
A|-2-2-2-2--|
E|-0-0-0-0--|

Guitar 2
e|----------|
B|----------|
G|----------|
D|-2-2-2-2--|
A|-2-2-2-2--|
E|-0-0-0-0--|

                               8.AC/DC:  Wheels
Album:  Black Ice
Transcribed by:  Jeff Martin
Tuning:  Standard

INTRO
ANGUS
|-----------------------------:||
|-------------------3---------:||
|-
Добавлено: 23.04.2012
Другие материалы по этой песне:
  • Аккорды и текст

Страница создана 23.04.2012
http://primanota.ru/ac-dc/black-ice-album-chords.htm
Привет, Гость.
Предлагаем пройти революционный курс по гитаре.
Подарок от PrimaNota.Ru, забирай!