PrimaNota.ru - самый крупный в мире бесплатный архив песенных текстов, аккордов, табулатур и нот


Abc - 799 - таба, видео

Регистрация Запомнить меня
Войти через:  Facebook Google Twitter Vk Yandex Mail.ru

Abc - 799 - таба, видео

Печатать
Просмотров: 135
INTRO
Guitar 1
e|------------------------------0-0-0-0-0-0-0-0--|
B|------------------------------3-3-2-2-3-3-2-2--|
G|-----------------------------------------------|
D|-----------------------------------------------|
A|---------5------------5------------------------|
E|--3--3------3---3--3-----3---------------------|

Guitar 2
e|-------------------------------------------------------|
B|-------------------------------------------------------|
G|-----2--3--2--11--9--9--7--7--7--9---------------------|
D|-0h2---------------------------------------------------|
A|---------------------------------------2-2-3-3-2-2-3-3-|
E|---------------------------------------0-0-0-0-0-0-0-0-|

VERSE (X6)
Guitar 1
e|-------------------------------------------------------------|
B|-------------------------------------------------------------|
G|--11--11--11----------11--11--11------------------------7----|
D|--------------9--7--9-------------9--7--9---5-----7--9-----7-|
A|-----------------------------------------------9-------------|
E|-------------------------------------------------------------|

Guitar 2
e|-9-----9-----10-----10-----0----0-----9-----9-----10-----10-----0----0---|
B|---10----10-----10-----10----8----8-----10----10-----10-----10----8----8-|
G|-------------------------------------------------------------------------|
D|-------------------------------------------------------------------------|
A|-------------------------------------------------------------------------|
E|-------------------------------------------------------------------------|

CHORUS (x2)
Guitar 1
e|-------------------------------------------------------------|
B|-------------------------------------------------------------|
G|----------------------------9--9--9--------------------------|
D|--------9--------11--11--11--------------------------9-------|
A|-----11---11--------------------------9--7--5-----11---11----|
E|--9-----------9---------------------------------9----------9-|

Guitar 2
e|-------------------------------------------------|
B|-------------------------------------------------|
G|--9--9--9--9-------------------------------------|
D|--9--9--9--9--9--9--9--9--4--4--4--4--0--0--0--0-|
A|--7--7--7--7--9--9--9--9--4--4--4--4--1--1--1--1-|
E|--------------7--7--7--7--2--2--2--2--2--2--2--2-|

VERSE (X6)
Guitar 1
e|-------------------------------------------------------------|
B|-------------------------------------------------------------|
G|--11--11--11----------11--11--11------------------------7----|
D|--------------9--7--9-------------9--7--9---5-----7--9-----7-|
A|-----------------------------------------------9-------------|
E|-------------------------------------------------------------|

Guitar 2
e|-9-----9-----10-----10-----0----0-----9-----9-----10-----10-----0----0---|
B|---10----10-----10-----10----8----8-----10----10-----10-----10----8----8-|
G|-------------------------------------------------------------------------|
D|-------------------------------------------------------------------------|
A|-------------------------------------------------------------------------|
E|-------------------------------------------------------------------------|

CHORUS (x2)
Guitar 1
e|-------------------------------------------------------------|
B|-------------------------------------------------------------|
G|----------------------------9--9--9--------------------------|
D|--------9--------11--11--11--------------------------9-------|
A|-----11---11--------------------------9--7--5-----11---11----|
E|--9-----------9---------------------------------9----------9-|

Guitar 2
e|-------------------------------------------------|
B|-------------------------------------------------|
G|--9--9--9--9-------------------------------------|
D|--9--9--9--9--9--9--9--9--4--4--4--4--0--0--0--0-|
A|--7--7--7--7--9--9--9--9--4--4--4--4--1--1--1--1-|
E|--------------7--7--7--7--2--2--2--2--2--2--2--2-|


BRIDGE (x2)
Guitar 1
e|------------------------------------------------------------------|
B|------------------------------------------------------------------|
G|------------------------------------------------------------------|
D|--------------------------9--7-------------9--7-------------------|
A|--------------5--6--7--9--------9--7--6--5-------6--7--9----------|
E|--5--6--7--9----------------------------------------------6--7--9-|

Guitar 2
e|--6-----6-----0-----2------------0------0--2------------2---0--2--|
B|----7-----7-----4-----3--------0------0-------3-------3-----------|
G|------5-----5-----5-----4----5------5-----------4---4-------------|
D|------------------------------------------------------------------|
A|------------------------------------------------------------------|
E|------------------------------------------------------------------|

INTRO
Guitar 1
e|------------------------------0-0-0-0-0-0-0-0--|
B|------------------------------3-3-2-2-3-3-2-2--|
G|-----------------------------------------------|
D|-----------------------------------------------|
A|---------5------------5------------------------|
E|--3--3------3---3--3-----3---------------------|

Guitar 2
e|-------------------------------------------------------|
B|-------------------------------------------------------|
G|-----2--3--2--11--9--9--7--7--7--9---------------------|
D|-0h2---------------------------------------------------|
A|---------------------------------------2-2-3-3-2-2-3-3-|
E|---------------------------------------0-0-0-0-0-0-0-0-|

CHORUS (x2)
Guitar 1
e|-------------------------------------------------------------|
B|-------------------------------------------------------------|
G|----------------------------9--9--9--------------------------|
D|--------9--------11--11--11--------------------------9-------|
A|-----11---11--------------------------9--7--5-----11---11----|
E|--9-----------9---------------------------------9----------9-|

Guitar 2
e|-------------------------------------------------|
B|-------------------------------------------------|
G|--9--9--9--9-------------------------------------|
D|--9--9--9--9--9--9--9--9--4--4--4--4--0--0--0--0-|
A|--7--7--7--7--9--9--9--9--4--4--4--4--1--1--1--1-|
E|--------------7--7--7--7--2--2--2--2--2--2--2--2-|
Добавлено: 03.05.2012
Другие материалы по этой песне:
  • Аккорды и текст

Страница создана 03.05.2012
http://primanota.ru/abc/799-chords.htm
Привет, Гость.
Предлагаем пройти революционный курс по гитаре.
Подарок от PrimaNota.Ru, забирай!