PrimaNota.ru - самый крупный в мире бесплатный архив песенных текстов, аккордов, табулатур и нот


A Perfect Circle - 3 Libras V2 - таба, видео

Регистрация Запомнить меня
Войти через:  Facebook Google Twitter Vk Yandex Mail.ru

A Perfect Circle - 3 Libras V2 - таба, видео

Печатать
Просмотров: 85
Band: A Perfect Circle
Album: Mer De Noms
Song: Three Libras
Tabbed by: Philip Wheeler  pheeler@yahoo.com>

Drop D Tuning
fingerpicked throughout
3/4 time

/:slide up
\:slide down
h:hammer on
p:pull off
~:vibrato

intro (clean)
E---------------------------------------------
B---------------------------------------------
G---------------------------------------------
D-9-----9-9-----9-9-----9-13-------13-9-------
A---7-------7-------7--------11---------7-----
D-7---7---7---7---7---7---11----11----7---7---
																														
                              repeat   2nd
-------------------------------------|--------
-------------------------------------|--------
-------------------------------------|--------
--9-9-----9-/16-------16-13-------13-|-14-----
------7---------14----------13-------|----12--
----7---7---/14----14----11----13----|-12-----

																																		let ring
----------------------------------------------
----------------------------------------------
----------------------------------------------
-----14-14-------14-14-------14-14~-----------
-----------12----------12---------------------
--12----12----12----12----12----12~-----------

verse														               repeat
-----------------------------------------|----
-----------------------------------------|----
-----------------------------------------|----
--9-----9-9-----9-/11-----11-12-------12-|----
----7-------7---------9---------10-------|----
--7---7---7---7----/9---9----10----10----|----
(i threw you the obvious..)

4th time
-------------
-------------
-------------
-13-------13-
----11-------
-11----11----

chorus                                 
----------------------------------------------
----------------------------------------------
----------------------------------------------
-9-----9-9-----9-9-----9-/16-------16--13-----
---7-------7-------7---------14-----------11--
-7---7---7---7---7---7---/14----14-----11-----

                    1st
-------------------|--------------------------
-------------------|--------------------------
-------------------|--------------------------
----13-13-------13-|-13------13-13-------13---
----------11-------|----11---------11---------
-11----11----11----|-11----11---11----11------

2nd
----------------------------------------------
----------------------------------------------
----------------------------------------------
-14-------14-14-------14-14-------14-14~------
----12----------12----------12----------------
-12----12----12----12----12----12----12~------

verse again

bridge (w/distortion)       4x
----------------------------------------------
----------------------------------------------
----------------------------------------------
-9-9-9--9-9-9--5-5-5--------------------------
-9-9-9--9-9-9--5-5-5--3-3-3-------------------
-7-7-7--7-7-7--3-3-3--3-3-3-------------------
----------------------3-3-3-------------------
(so i threw...)

intro riff is played again
(oh well...)




The last time they play the A D G there's a mildly
distorted electric guitar= =20 playing 12ths. I didn't
tab it out because i was only interested in an
acoustic version of the song, and Michael has a pretty
good version.

Here's what he had in his version:

outro:             (2x)
-------------------------------------------------
-------------------------------------------------
-6-6-6-6/4---4---4---4\6-6-6-6\8---8---8---8/----
-------------------------------------------------
-4-4-4-4/2---2---2---2\4-4-4-4\6---6---6---6/----
-------------------------------------------------
(you don't see me...)


-------------------------------------------------
-------------------------------------------------
-11--111111/13-13-13-13-13-13/16-16-16-16-16-16--
-------------------------------------------------
-9---9-9-9-/11-11-11-11-11-11/14-14-14-14-14-14--
-------------------------------------------------

------------------------------------------------------------------
------------------------------------------------------------------
-9-9\8---8---8---8\6-6-6-6\4---4---4---4/6-6-6-6\4---4---4---4\---
----------------------------------------------------------------2-
-7-7\6---6---6---6\4-4-4-4\2---2---2---2/4-4-4-4\2---2---2---2\-0-
------------------------------------------------------------------


     
Добавлено: 07.10.2013
Другие материалы по этой песне:
  • Аккорды и текст

Страница создана 07.10.2013
http://primanota.ru/a-perfect-circle/3-libras-v2-chords.htm
Привет, Гость.
Предлагаем пройти революционный курс по гитаре.
Подарок от PrimaNota.Ru, забирай!