PrimaNota.ru - самый крупный в мире бесплатный архив песенных текстов, аккордов, табулатур и нот


311 - Today My Love - текст песни, таба, бас-таба, видео

Регистрация Запомнить меня
Войти через:  Facebook Google Twitter Vk Yandex Mail.ru

311 - Today My Love - текст песни, таба, бас-таба, видео

Печатать
Просмотров: 236
'Today My Love'
Performed by 311
From the album "Hydroponic" on What Have You Records
Music by:  N. Hexum & C. Sexton
Lyrics by:  N. Hexum & C. Sexton
(c) 1992 Allegiance Music/Hydroponic Music BMI
---------------
Tabbed by: Michael Slusarz (slusarz@ucsu.colorado.edu)
Lyric Help by: Michael Zuntag (zuntag@flash.net)
               srndpty519 (srndpty519@aol.com)
The 311 Guitar Archive -- http://chromosome.colorado.edu/311archive/

Important:  This song is played by dropping each string a half step.
            Tuning should be (from low to high): D# G# C# F# C D#
            Chords listed are for standard tuning.

Intro:
======
   N.C.
1:---------------------------------|
2:---------------------------------|
3:---------------------------------|
4:---0---0---0---0---0---0---0---0-|
5:-0---1---0---1---0---1---0---1---|
6:---------------------------------|

Chorus A:
=========
   G   Am  G   Am  G   Am  G   Am
1:-3---0---3---0---3---0---3---0-|
2:-0---1---0---1---0---1---0---1-|
3:-0---2---0---2---0---2---0---2-|
4:-0---2---0---2---0---2---0---2-|
5:-2---0---2---0---2---0---2---0-|
6:-3-------3-------3-------3-----|

Riff 1:
=======
   E                          (G6)      (Bsus4)
1:-----------///x--------------12----------------|
2:-----------///x-----------------12----12-------|
3:-1-1-1-1-1-///x---1-1-1-1-1--------12----12-11-|
4:-2-2-2-2-2-///x---2-2-2-2-2--------------------|
5:-2-2-2-2-2-///x---2-2-2-2-2--------------------|
6:-0-0-0-0-0-///x---0-0-0-0-0--------------------|
(At the x's, slide up the neck and play variations)

   E      G5 F#5 F5 E
1:-----------------------------------|
2:-----------------------------------|
3:-1-1-1-------------1-1-1-1-1-1-1-1-|
4:-2-2-2---5--4--3---2-2-2-2-2-2-2-2-|
5:-2-2-2---5--4--3---2-2-2-2-2-2-2-2-|
6:-0-0-0---3--2--1---0-0-0-0-0-0-0-0-|

Riff 2:
=======
   N.C.
1:----------------------------------|
2:----------------------------------|
3:----------------------------------|
4:---2-0-------0-2----2-0-------0-2-|
5:-------2-0-2------------2-0-2-----|
6:-0----------------0---------------|

   N.C.              G5  F#5
1:-------------------------|
2:-------------------------|
3:-------------------------|
4:---2-0-------0-2---5---4-|
5:-------2-0-2-------5---4-|
6:-0-----------------3---2-|

Chorus B:
=========
   A   Bm  A   Bm  A   Bm  A   Bm
1:-0-------0-------0-------0-----|
2:-2---3---2---3---2---3---2---3-|
3:-2---4---2---4---2---4---2---4-|
4:-2---4---2---4---2---4---2---4-|
5:-0---2---0---2---0---2---0---2-|
6:-------------------------------|

Post-Chorus:
============
Alternate w/differnet picking variations on these two chords:

   A    Bm11
1:-0----0-|
2:-2----2-|
3:-2----2-|
4:-2----0-|
5:-0----2-|
6:--------|

[One variation:]
  (A)        (Bm11)
1:---0------------0---|
2:-----2------------2-|
3:-------2------------|
4:---------2----0-----|
5:-0----------2-------|
6:--------------------|
Добавлено: 11.05.2012
Другие материалы по этой песне:
  • Аккорды и текст

Страница создана 30.03.2012
http://primanota.ru/311/today-my-love-chords.htm
Привет, Гость.
Предлагаем пройти революционный курс по гитаре.
Подарок от PrimaNota.Ru, забирай!