PrimaNota.ru - самый крупный в мире бесплатный архив песенных текстов, аккордов, табулатур и нот


311 - Random - аккорды и текст, таба, бас-таба, видео

Регистрация Запомнить меня
Войти через:  Facebook Google Twitter Vk Yandex Mail.ru

311 - Random - аккорды и текст, таба, бас-таба, видео

Печатать
Просмотров: 375
Random
311
		   Random -311
transcribed by Josh Keafer


Verse

|-------------------------
|-------------------------
|-------------------------
|-------x-x-8-8-8---------
|-6-6-6-x-x-6-6-6-3-4-3-4-
|-4-4-4-----------1-2-1-2-


|----------------------------
|----------------------------
|----------------------------
|----------------------------
|-10--3-5-3-5--10-10-10-11-10-
|--8--1-3-1-3--8--8--8---9--8-

Chorus

|-------------------------------
|-------------------------------
|-------------------------------
|-------------------------------
|-9-9--3-3--4-4-x-4-4-4-x-4-4-4-
|-7-7--1-1--2-2-x-2-2-2-x-2-2-2-


End (3x)

|---------------------------
|---------------------------
|---------------------------
|---------------------------
|-3-3-2-3-2-3-2-3-3-2-3-4-4-
|-1-1-0-1-0-1-0-1-1-0-1-2-2-

Very end

|-------------------------------
|-------------------------------
|-------------------------------
|-------------------------------
|-3-3-2-3-2-3-2-3-3-2-3-4-4-3-3-
|-1-1-0-1-0-1-0-1-1-0-1-2-2-1-1-
                              ^
Let the last chord ring-------|








311-RANDOM

Off of there self titled release *311*


SONG ORDER


*Drum Intro*


*verse*(7x's)
|------------------------------------------------|
|------------------------------------------------|
|------------------------------------------------|
|------------------------------------------------|
|----------------8-8-8-8\------------------------|
|----6-6-6-6-6-6-----------1-2-1-2---------------|
  pm.-----------------] pm.-------]


*verse 2*(4x's)
|--------------------------------|
|--------------------------------|
|--------------------------------|
|--------------------------------|
|---3----------3-0-4h6p4---------|
|-----4p3--1-3-------------------|


*verse*(7x's)

*verse2*(4x's)

*chorus*(4x's)
|-------------------------------------|
|-------------------------------------|
|-------------------------------------|
|-------------------------------------|
|--10-10-----3-3---4xx4xx4x4x4xx4-----|
|---8--8-----1-1---2xx2xx2x2x2xx2-----|

*verse*(7x's)

*verse2*(4x's)

*chorus*(4x's)

*outro*
|-----------------------------------|-------|
|-----------------------------------|-------|
|-----------------------------------|-------|
|---------------------Repeat--------|-------|
|--3--2--3--2--3-2-3---------4-4----|-3-3---|
|--1--0--1--0--1-0-1---------2-2----|-1-1---|
                                     End on this     
Добавлено: 05.08.2013
Другие материалы по этой песне:

Страница создана 22.02.2012
http://primanota.ru/311/random-chords.htm
Привет, Гость.
Предлагаем пройти революционный курс по гитаре.
Подарок от PrimaNota.Ru, забирай!